PrimaNota.ru - самый крупный в мире бесплатный архив песенных текстов, аккордов, табулатур и нот


Kickball - Falsifier - таба, видео

Регистрация Запомнить меня
Войти через:  Facebook Google Twitter Vk Yandex Mail.ru

Kickball - Falsifier - таба, видео

Печатать
Просмотров: 87
-------------------------------------------------------------------------------
                             Falsifier - Kickball
-------------------------------------------------------------------------------
Tabbed by: Jason
E-mail:

Tuning: Recorded in Drop B, live in Drop C, CGCFAD

C#|----------------------------------------------------------------|
G#|----------------------------------------------------------------|
E |----------------------------------------------------------------|
B |7-7-7-7-7-7-7-7-7-7-7-7-8-8-8-8-7-7-7-7-7-7-7-7-7-7-7-7-5-5-5-5-|
F#|7-7-7-7-7-7-7-7-7-7-7-7-8-8-8-8-7-7-7-7-7-7-7-7-7-7-7-7-5-5-5-5-|
B |7-7-7-7-7-7-7-7-7-7-7-7-8-8-8-8-7-7-7-7-7-7-7-7-7-7-7-7-5-5-5-5-|
     x x   x x   x   x x             x x   x x   x   x x 

C#|----------------------------------------------------------------|
G#|----------------------------------------------------------------|
E |----------------------------------------------------------------|
B |7-7-7-7-7-7-7-7-7-7-7-7-8-8-8-8-7-7-7-7-7-7-7-7-7-7-7-7-5-5-5-5-|
F#|7-7-7-7-7-7-7-7-7-7-7-7-8-8-8-8-7-7-7-7-7-7-7-7-7-7-7-7-5-5-5-5-|
B |7-7-7-7-7-7-7-7-7-7-7-7-8-8-8-8-7-7-7-7-7-7-7-7-7-7-7-7-5-5-5-5-|
     x x   x x   x   x x             x x   x x   x   x x 

C#|----------------------------------------------------------------|
G#|----------------------------------------------------------------|
E |----------------------------------------------------------------|
B |3-3-3-3-3-3-3-3-3-3-3-3-4-4-4-4-3-3-3-3-3-3-3-3-3-3-3-3-1-1-1-1-|
F#|3-3-3-3-3-3-3-3-3-3-3-3-4-4-4-4-3-3-3-3-3-3-3-3-3-3-3-3-1-1-1-1-|
B |3-3-3-3-3-3-3-3-3-3-3-3-4-4-4-4-3-3-3-3-3-3-3-3-3-3-3-3-1-1-1-1-|
     x x   x x   x   x x             x x   x x   x   x x 

C#|----------------------------------------------------------------|
G#|----------------------------------------------------------------|
E |----------------------------------------------------------------|
B |3-3-3-3-3-3-3-3-3-3-3-3-4-4-4-4-3-3-3-3-3-3-3-3-3-3-3-3-1-1-1-1-|
F#|3-3-3-3-3-3-3-3-3-3-3-3-4-4-4-4-3-3-3-3-3-3-3-3-3-3-3-3-1-1-1-1-|
B |3-3-3-3-3-3-3-3-3-3-3-3-4-4-4-4-3-3-3-3-3-3-3-3-3-3-3-3-1-1-1-1-|
     x x   x x   x   x x             x x   x x   x   x x 

C#|----------------------------------------------------------------|
G#|----------------------------------------------------------------|
E |----------------------------------------------------------------|
B |3-3-3-3-3-3-3-3-3-3-3-3-4-4-4-4-3-3-3-3-3-3-3-3-3-3-3-3-1-1-1-1-|
F#|3-3-3-3-3-3-3-3-3-3-3-3-4-4-4-4-3-3-3-3-3-3-3-3-3-3-3-3-1-1-1-1-|
B |3-3-3-3-3-3-3-3-3-3-3-3-4-4-4-4-3-3-3-3-3-3-3-3-3-3-3-3-1-1-1-1-|
     x x   x x   x   x x             x x   x x   x   x x 

C#|-------------------------------------------------------------------------------|
G#|-------------------------------------------------------------------------------|
E |-------------------------------------------------------------------------------|
B |3-3-3-3-3-3-3-3-3-3-3-3-4-4-4-4-3-3-3-3-3-3-3-3-3-3-3-3-1-1-1-1--------------1/|
F#|3-3-3-3-3-3-3-3-3-3-3-3-4-4-4-4-3-3-3-3-3-3-3-3-3-3-3-3-1-1-1-1--------------1/|
B |3-3-3-3-3-3-3-3-3-3-3-3-4-4-4-4-3-3-3-3-3-3-3-3-3-3-3-3-1-1-1-1--------------1/|
     x x   x x   x   x x             x x   x x   x   x x 

C#|----------------------------------------------------------------|
G#|----------------------------------------------------------------|
E |----------------------------------------------------------------|
B |3-3-3-3-3-3-3-3-3-3-3-3-4-4-4-4-3-3-3-3-3-3-3-3-3-3-3-3-1-1-1-1-|
F#|3-3-3-3-3-3-3-3-3-3-3-3-4-4-4-4-3-3-3-3-3-3-3-3-3-3-3-3-1-1-1-1-|
B |3-3-3-3-3-3-3-3-3-3-3-3-4-4-4-4-3-3-3-3-3-3-3-3-3-3-3-3-1-1-1-1-|
     x x   x x   x   x x             x x   x x   x   x x 

C#|----------------------------------------------------------------|
G#|----------------------------------------------------------------|
E |----------------------------------------------------------------|
B |3-3-3-3-3-3-3-3-3-3-3-3-4-4-4-4-3-3-3-3-3-3-3-3-3-3-3-3-1-1-1-1-|
F#|3-3-3-3-3-3-3-3-3-3-3-3-4-4-4-4-3-3-3-3-3-3-3-3-3-3-3-3-1-1-1-1-|
B |3-3-3-3-3-3-3-3-3-3-3-3-4-4-4-4-3-3-3-3-3-3-3-3-3-3-3-3-1-1-1-1-|
     x x   x x   x   x x             x x   x x   x   x x 

C#|----------------------------------------------------------------|
G#|----------------------------------------------------------------|
E |----------------------------------------------------------------|
B |7-7-7-7-7-7-7-7-7-7-7-7-8-8-8-8-7-7-7-7-7-7-7-7-7-7-7-7-5-5-5-5-|
F#|7-7-7-7-7-7-7-7-7-7-7-7-8-8-8-8-7-7-7-7-7-7-7-7-7-7-7-7-5-5-5-5-|
B |7-7-7-7-7-7-7-7-7-7-7-7-8-8-8-8-7-7-7-7-7-7-7-7-7-7-7-7-5-5-5-5-|
     x x   x x   x   x x             x x   x x   x   x x 

C#|----------------------------------------------------------------|
G#|----------------------------------------------------------------|
E |----------------------------------------------------------------|
B |7-7-7-7-7-7-7-7-7-7-7-7-8-8-8-8-7-7-7-7-7-7-7-7-7-7-7-7-5-5-5-5-|
F#|7-7-7-7-7-7-7-7-7-7-7-7-8-8-8-8-7-7-7-7-7-7-7-7-7-7-7-7-5-5-5-5-|
B |7-7-7-7-7-7-7-7-7-7-7-7-8-8-8-8-7-7-7-7-7-7-7-7-7-7-7-7-5-5-5-5-|
     x x   x x   x   x x             x x   x x   x   x x 

C#|-----------------------------------------------------|
G#|-----------------------------------------------------|
E |-----------------------------------------------------|
B |7-----7-7-5---3---3--7-7-7-7-7-7-7-7-7-7-7-7-8-8-8-8-|
F#|7-----7-7-5---3---3--7-7-7-7-7-7-7-7-7-7-7-7-8-8-8-8-|
B |7-----7-7-5---3---3--7-7-7-7-7-7-7-7-7-7-7-7-8-8-8-8-|
                          x x x x   x x   x x

C#|-----------------------------------------------------|
G#|-----------------------------------------------------|
E |-----------------------------------------------------|
B |7-----7-7-5---3---5--7-7-7-7-7-7-7-7-7-7-7-7-8-8-8-8-|
F#|7-----7-7-5---3---5--7-7-7-7-7-7-7-7-7-7-7-7-8-8-8-8-|
B |7-----7-7-5---3---5--7-7-7-7-7-7-7-7-7-7-7-7-8-8-8-8-|
                          x x x x   x x   x x

C#|-------------------------------------------------|
G#|-------------------------------------------------|
E |-------------------------------------------------|
B |7---8---7--3---8---7--7---8---7--5-5-5-5-5-5-5-5-|
F#|7---8---7--3---8---7--7---8---7--5-5-5-5-5-5-5-5-|
B |7---8---7--3---8---7--7---8---7--5-5-5-5-5-5-5-5-|
                                      x x x x   x x

C#|----------------------------------------------------|
G#|----------------------------------------------------|
E |----------------------------------------------------|
B |7---8---7--3---8---7--7---8---7--6----5-------------|
F#|7---8---7--3---8---7--7---8---7--6----5-------------|
B |7---8---7--3---8---7--7---8---7--6----5-------------|

C#|----------------------------------------------------|
G#|----------------------------------------------------|
E |7----------5----------------------------------------|
B |7---6---5--5---4---3--1---------------------------1/|
F#|5---6---5--3---4---3--1---------------------------1/|
B |----6---5------4---3--1---------------------------1/|

C#|----------------------------------------------------------------|
G#|----------------------------------------------------------------|
E |----------------------------------------------------------------|
B |4-3-3-3-3-3-3-3-4-3-3-3-3-1-1-1-4-3-3-3-3-3-3-3-4-3-3-3-3-1-1-1-|
F#|4-3-3-3-3-3-3-3-4-3-3-3-3-1-1-1-4-3-3-3-3-3-3-3-4-3-3-3-3-1-1-1-|
B |4-3-3-3-3-3-3-3-4-3-3-3-3-1-1-1-4-3-3-3-3-3-3-3-4-3-3-3-3-1-1-1-|
       x   x   x       x   x x x x     x   x   x       x   x x x x

C#|----------------------------------------------------------------|
G#|----------------------------------------------------------------|
E |----------------------------------------------------------------|
B |4-3-3-3-3-3-3-3-4-3-3-3-3-1-1-1-4-3-3-3-3-3-3-3-4-3-3-3-3-1-1-1-|
F#|4-3-3-3-3-3-3-3-4-3-3-3-3-1-1-1-4-3-3-3-3-3-3-3-4-3-3-3-3-1-1-1-|
B |4-3-3-3-3-3-3-3-4-3-3-3-3-1-1-1-4-3-3-3-3-3-3-3-4-3-3-3-3-1-1-1-|
       x   x   x       x   x x x x     x   x   x       x   x x x x

C#|----------------------------------------------------------------|
G#|----------------------------------------------------------------|
E |----------------------------------------------------------------|
B |8-7-7-7-7-7-7-7-8-7-7-7-7-5-5-5-8-7-7-7-7-7-7-7-8-7-7-7-7-5-5-5-|
F#|8-7-7-7-7-7-7-7-8-7-7-7-7-5-5-5-8-7-7-7-7-7-7-7-8-7-7-7-7-5-5-5-|
B |8-7-7-7-7-7-7-7-8-7-7-7-7-5-5-5-8-7-7-7-7-7-7-7-8-7-7-7-7-5-5-5-|
       x   x   x       x   x x x x     x   x   x       x   x x x x

C#|----------------------------------------------------------------|
G#|----------------------------------------------------------------|
E |----------------------------------------------------------------|
B |4-3-3-3-3-3-3-3-4-3-3-3-3-1-1-1-4-3-3-3-3-3-3-3-4-3-3-3-3-1-1-1-|
F#|4-3-3-3-3-3-3-3-4-3-3-3-3-1-1-1-4-3-3-3-3-3-3-3-4-3-3-3-3-1-1-1-|
B |4-3-3-3-3-3-3-3-4-3-3-3-3-1-1-1-4-3-3-3-3-3-3-3-4-3-3-3-3-1-1-1-|
       x   x   x       x   x x x x     x   x   x       x   x x x x



************************************

| /   slide up
| \   slide down
| h   hammer-on
| p   pull-off
| ~   vibrato
| +   harmonic
| x   Mute note
| b   Bend
| pb  Pre-bend
| br  Bend release
| pbr Pre-bend release
| brb Bend release bend

************************************
Добавлено: 04.12.2015
Другие материалы по этой песне:
  • Аккорды и текст

Страница создана 04.12.2015
http://primanota.ru/kickball/falsifier-chords.htm
Привет, Гость.
Предлагаем пройти революционный курс по гитаре.
Подарок от PrimaNota.Ru, забирай!