PrimaNota.ru - самый крупный в мире бесплатный архив песенных текстов, аккордов, табулатур и нот


Kick Axe - Hunger - таба, видео

Регистрация Запомнить меня
Войти через:  Facebook Google Twitter Vk Yandex Mail.ru

Kick Axe - Hunger - таба, видео

Печатать
Просмотров: 256
This is what I think the Kick Axe(http://www.kickaxe.net/) song 'Hunger' intro, from the 
Movie(1986) is, if you have any suggestions then feel free to submit them.

E|---------------------------------------------------|
B|---------------------------------------------------|
G|-----------2--3--2--0-----------0-0----------------|
D|--0--2--0--2--3--2--0--0--2--0--0-0--2-------------|
A|--0--2--0--------------0--2--0-------2-------------|
E|---------------------------------------------------|

E|---------------------------------------------------|
B|---------------------------------------------------|
G|-----------2--3--2--0-----------2-2----------------|
D|--0--2--0--2--3--2--0--0--2--0--2-2--2-------------|
A|--0--2--0--------------0--2--0-------2-------------|
E|---------------------------------------------------|
Добавлено: 12.03.2012
Другие материалы по этой песне:

Страница создана 12.03.2012
http://primanota.ru/kick-axe/hunger-chords.htm
Привет, Гость.
Предлагаем пройти революционный курс по гитаре.
Подарок от PrimaNota.Ru, забирай!