PrimaNota.ru - самый крупный в мире бесплатный архив песенных текстов, аккордов, табулатур и нот


Khan - Driving To Amsterdam - таба, видео

Регистрация Запомнить меня
Войти через:  Facebook Google Twitter Vk Yandex Mail.ru

Khan - Driving To Amsterdam - таба, видео

Печатать
Просмотров: 66
-------------------------------------------------------------------------------
                             Driving to Amsterdam - Khan
-------------------------------------------------------------------------------
This is a great song and nobody had tabbed it before so I thought why not give it a whirl.
Also, this my first tab so no hate please and thank you!

Music by: Steve Hillage
Tabbed by: MrSaltlick
E-mail: jgaudet10@gmail.com

Tuning:Standard

This is just the beginning solo of the song...

Repeat this first part three times. The fourth time, the ending changes to the next part.
e|-------------------------------5h8p5----5-------|
B|-----------------------5h6p5----------8---------|
G|---7--7------5--6--7----------------------------|
D|---------7--------------------------------------|
A|------------------------------------------------|
E|------------------------------------------------|

e|-------------------------------5h8p5------5---7--8--10---12--10-8-7h8p7--\5--|
B|-----------------------5h6p5-----------8-------------------------------------|
G|---7--7-------5--6--7--------------------------------------------------------|
D|---------7-------------------------------------------------------------------|
A|-----------------------------------------------------------------------------|
E|-----------------------------------------------------------------------------|

e|--10---7--------------------------------|
B|-----------8--5--8--5-----5-------------|
G|-----------------------5-----5----------|
D|---------------------------------7------|
A|----------------------------------------|
E|----------------------------------------|

e|-----------------------------------7-9-11-12-14------|
B|--------------------------7-9-10---------------------|
G|-------------------6-8-9-----------------------------|
D|------------6-7-9------------------------------------|
A|--4--6-7-9-------------------------------------------|
E|-----------------------------------------------------|

e|--11h12p11p9--------------------------------------------|
B|--------------12-11h12p11p9-----------------------------|
G|------------------------------11---8---8----------------|
D|------------------------------------------11-9----------|
A|------------------------------------------------11------|
E|--------------------------------------------------------|

e|-----------------------------------------------------------------------------------------------|
B|-----------------------------------------------------------------------------------------------|
G|---------------9h10p9------------9h10p9-----------9h10p9------9-9-7-9-10-12-14-14b16-14b16-12--|
D|------7--10-------------10-7-10---------10-7-10-----------10-----------------------------------|
A|---8-------------------------------------------------------------------------------------------|
E|-----------------------------------------------------------------------------------------------|

e|-------------------------------------------------------------------|
B|-----13-11------------13-11----------------------------------------|
G|-14---------14-12-14---------14-12---------------------------------|
D|------------------------------------15-14-12----15-13-12-10-8------|
A|-------------------------------------------------------------------|
E|-------------------------------------------------------------------|

e|----------------------------------------------------------------------------|
B|----------------------------------------------------------------------------|
G|--------------------------------------------------------------------5-6-7---|
D|--8p7-----8-----8p7-----8----8p7-----8----8p7-----8----8p7-----8------------|
A|------10------------10-----------10-----------10-----------10---------------|
E|----------------------------------------------------------------------------|


************************************

| /   slide up
| \   slide down
| h   hammer-on
| p   pull-off
| ~   vibrato
| +   harmonic
| x   Mute note
| b   Bend
| pb  Pre-bend
| br  Bend release
| pbr Pre-bend release
| brb Bend release bend

************************************
Добавлено: 11.06.2016
Другие материалы по этой песне:
  • Аккорды и текст

Страница создана 11.06.2016
http://primanota.ru/khan/driving-to-amsterdam-chords.htm
Привет, Гость.
Предлагаем пройти революционный курс по гитаре.
Подарок от PrimaNota.Ru, забирай!