PrimaNota.ru - самый крупный в мире бесплатный архив песенных текстов, аккордов, табулатур и нот


Khalifah - Hang Pi Mana - таба, видео

Регистрация Запомнить меня
Войти через:  Facebook Google Twitter Vk Yandex Mail.ru

Khalifah - Hang Pi Mana - таба, видео

Печатать
Просмотров: 40
Уроки эстрадного вокала в Санкт-Петербурге
[Intro]

part a 2x

e|-----7-7---5------------------|
B|--5------8---7-8-5------------|
G|------------------------------|
D|------------------------------|
A|------------------------------|
E|------------------------------|

part b 2x

e|-----12-12-8-10-7-8-5---------|
B|--10--------------------------|
G|------------------------------|
D|------------------------------|
A|------------------------------|
E|------------------------------|

part c

e|------------------------------|
B|----------7~--10~--12~--------|
G|--4~--8~----------------------|
D|------------------------------|
A|------------------------------|
E|------------------------------|


[Chorus]

          Em
Hang pi mana x4
          Bm
Hang pi mana x4
          Am
Hang pi mana x4
          Em
Hang pi mana


[Verse 1]

            Em
Pagi pagi buta mak ayah dah tanya
            Bm
Aku nak kemana
             Am
Berseluar yankee baju bunga bunga
               Em
Duduk atas tangga


[Verse 2]

              Em
Ai malu nak kata takkan ku nak auta
               D
Mak ayah tercinta
               C
Ceq nak pi kerja
        D
Insyaallah
              Em
Bukan nak pi mana


[Chorus]

          Em
Hang pi mana
Kerja apa
Hang pi mana
Kerja apa
          Bm
Hang pi mana
Kerja apa
Hang pi mana
Kerja apa
          Am
Hang pi mana
kerja apa
Hang pi mana
kerja apa
          Em
Hang pi mana


[Verse 3]

           D
Pergi sekolah
   Bm           Em
Bukan cikgu di sana
              D
Baju bunga bunga
   Bm               Em
Bukan tukang kebun juga


            D
Mak ayah tanya
    Bm             Em
Ceq pi buat kerja apa
            D
Malu nak kata
    Bm          Em
Nanti hangpa tau juga


[Bridge] (dikir)

Em
Anak anak mak ayah bukan tanya tanya saja
Em
Depa tanya p mana bukan mintak duit kita
Em
Malu apa janji kerja janji tidak buat dosa
Em                C            D          Em
Memang ceq nak habaq tunggu lepas solo gitar


[Solo]

p/s: part solo ni ikut suka korang, nak main part guitar 1 saja or part guitar 2 saja
or kalau ada 2 guitar boleh main serentak

guitar 1

e|--7-7-7-5-7-5-3-5/7-----------|
B|------------------------------|
G|------------------------------|
D|------------------------------|
A|------------------------------|
E|------------------------------|

e|--7-7-7-5-7-5-3-3/5-----------|
B|------------------------------|
G|------------------------------|
D|------------------------------|
A|------------------------------|
E|------------------------------|

e|--5-5-5-3-5-3-2-3/5-----------|
B|------------------------------|
G|------------------------------|
D|------------------------------|
A|------------------------------|
E|------------------------------|

e|--5-5-5-3-5-3-2-2/3-----------|
B|------------------------------|
G|------------------------------|
D|------------------------------|
A|------------------------------|
E|------------------------------|

e|-----------------------------------------------------|
B|-1-1-1-1-1-1-1-1--3-3-3-3-3-3-3-3--5-5-5-5-5-5-5-5---|
G|-----------------------------------------------------|
D|-----------------------------------------------------|
A|-----------------------------------------------------|
E|-----------------------------------------------------|


guitar 2

e|------------------------------|
B|--8-8-8-7-8-7-5-5/8-----------|
G|------------------------------|
D|------------------------------|
A|------------------------------|
E|------------------------------|

e|------------------------------|
B|--8-8-8-7-8-7-5-5/7-----------|
G|------------------------------|
D|------------------------------|
A|------------------------------|
E|------------------------------|

e|------------------------------|
B|--7-7-7-5-7-5-3-3/7-----------|
G|------------------------------|
D|------------------------------|
A|------------------------------|
E|------------------------------|

e|------------------------------|
B|--7-7-7-5-7-5-3-3/5-----------|
G|------------------------------|
D|------------------------------|
A|------------------------------|
E|------------------------------|

e|-----------------------------------------------------|
B|-----------------------------------------------------|
G|-0-0-0-0-0-0-0-0--2-2-2-2-2-2-2-2--4-4-4-4-4-4-4-4---|
D|-----------------------------------------------------|
A|-----------------------------------------------------|
E|-----------------------------------------------------|


[Verse]

            D
Ceq pi sekolah
   Bm             Em
Memang kerja di sana
               D
Kerja duduk saja
   Bm                Em
Sambil tengok sini sana

          D
Kerja mulia
   Bm            Em
Bukan cek buat dosa
             D
Gaji sederhana
    Bm            Em
Kerja jadi jaga saja


[Chorus]

          Em
Hang pi mana
Dah tau dah
Hang pi mana
Dah tau dah
          Bm
Hang pi mana
Dah tau dah
Hang pi mana
Dah tau dah
          Am
Hang pi mana
Dah tau dah
Hang pi mana
Dah tau dah
          Em
Hang pi mana



************************************

| /  Slide up
| ~  Vibrato

************************************
Добавлено: 18.11.2017
Другие материалы по этой песне:

Страница создана 18.11.2017
http://primanota.ru/khalifah/hang-pi-mana-chords.htm
Привет, Гость.
Предлагаем пройти революционный курс по гитаре.
Подарок от PrimaNota.Ru, забирай!