PrimaNota.ru - самый крупный в мире бесплатный архив песенных текстов, аккордов, табулатур и нот


Khalifah - Cikgu Ayu - таба, видео

Регистрация Запомнить меня
Войти через:  Facebook Google Twitter Vk Yandex Mail.ru

Khalifah - Cikgu Ayu - таба, видео

Печатать
Просмотров: 76
Khalifah - Cikgu Ayu (acoustic version)






|--5--------------------------------------------|
|----8-6-5----------5p6---5--5p6--5-------------|
|----------7-5----------7-7-----7-7-------------| X2
|--------------7--------------------------------|
|-----------------------------------------------|
|-----------------------------------------------|


|----------------------------------------------------|
|--6-6-5-8-6---6-5-5p6-5-----------------------------|
|------------------------7-5---5-7--7--7-5---5-7-7---|
|----------------------------7-------------7---------|
|----------------------------------------------------|
|----------------------------------------------------|


*
Dm
Teringat masa dulu ada seorang cikgu
C
Sungguh ayu
A
Dia bertudung litup
Senyum menawan kalbu
Dm
Memang ayu

Dm
Tiap hari pagiku ceria didada ku
C
Kerna cikgu
A
Setiap bicaramu membenihkan cintaku
Dm
Cikgu ayu

|--5--------------------------------------------|
|----8-6-5----------5p6---5--5p6--5-------------|
|----------7-5----------7-7-----7-7-------------| X2
|--------------7--------------------------------|
|-----------------------------------------------|
|-----------------------------------------------|

Dm
Tiap hari sabtu
Aku berjumpa cikgu
Ahad pula berlalu,
Kenapa rasa rindu?
Kacaunya jiwaku mungkin kerna cintaku
C
Cikgu ayu
Bb C
Cintaku
Dm
Cintaku

|--5--------------------------------------------|
|----8-6-5----------5p6---5--5p6--5-------------|
|----------7-5----------7-7-----7-7-------------| X2
|--------------7--------------------------------|
|-----------------------------------------------|
|-----------------------------------------------|

Dm
Jalan no 1
Rumah berwarna biru kampug ulu bharu
Disitu rumah cikgu
C
Cikgu ayu
Bb C
Cintaku
Dm
Cintaku

Ulang dari *

Dm
Tiap hari sabtu
Aku berjumpa cikgu
Ahad pula berlalu,
Kenapa rasa rindu?
C
Cikgu ayu
Bb C
Cintaku
Dm
Cintaku

Dm
Jalan no 1
Rumah berwarna biru kampug ulu bharu
Disitu rumah cikgu
Rumahnya cikgu ayu
Pujaan hatiku
C
Cikgu ayu
Bb C
Cintaku
Dm
Cintaku

Dm
Ini kisah cintaku
C
Cuma aku yang tahu rahsiaku
A Dm
Malu pada cikgu juga kawan-kawan ku ayah ibu
C
Cikgu Ayu
Bb C
Cinta Hatiku
Dm
Cinta Hatiku
C
Cinta Hatiku
Bb C Dm
Cikgu Ayu..........


you can edit this.. share to all.. =) =D


*KitTyz_BrAiNZz
Добавлено: 12.08.2015
Вам также может быть интересно:
Другие материалы по этой песне:
  • Аккорды и текст

Страница создана 12.08.2015
http://primanota.ru/khalifah/cikgu-ayu-chords.htm
Привет, Гость.
Предлагаем пройти революционный курс по гитаре.
Подарок от PrimaNota.Ru, забирай!