PrimaNota.ru - самый крупный в мире бесплатный архив песенных текстов, аккордов, табулатур и нот


Kevin Sherwood Elena Siegman - The One - таба, видео

Регистрация Запомнить меня
Войти через:  Facebook Google Twitter Vk Yandex Mail.ru

Kevin Sherwood Elena Siegman - The One - таба, видео

Печатать
Просмотров: 133
I got these sent to me, and was asked to put them up on here.
ALL CREDIT GOES TO "ParanoiakCity"  - YouTube.
I have nothing to do with these tabs, not edited by me.

All rights go to Treyarch and anyone involved in the making of this track.


-------------------------------------------------------------------------------
                             The One - Treyarch Sound
-------------------------------------------------------------------------------
Tabbed by: Sik666
E-mail: throughthefireandtheflames@hotmail.fr

Tuning:
Guitar 1: CGCFAD ( 6 string are enough )
Guitar 2: DADGCFAD ( 8 string here, but you only need of 7 strings for this tab )
About the song, this song appears as an easter egg in the map... Shi No Numa and
is the death song of Verr¸ckt but i'm not sure, anyway here is my way to play this song.

I'll split the tab with 2 guitars, 1 for clean parts and "solo" and the other for rythm.
The rythmic guitar is the Guitar 2.

Guitar 1 plays this 4 times for the intro, and can continue in the background of the guitar 2.
D|-19----------19----------19----------19----------|
A|----17----17----17----17----17----17----17----17-|
F|-------20----------20----------17----------17----|
C|-------------------------------------------------|
G|-------------------------------------------------|
C|-------------------------------------------------|

Guitar 2 repeat this at the beginning, i think it was originally played by the
bass but who cares? You can play it too.
D|-------|
A|-------|
F|-------|
C|-------|
G|-------|
D|-------|
A|-------|
D|-10--6-|

[00:21]
Then the Guitar 2 comes with this.
D|-------------------------------------------------------------|
A|-------------------------------------------------------------|
F|-9/11-1111----9/11-1111----11/12-1212--7-7-7-7/9-99-----1111-|
C|-X/X--X-X-----X/X--X-X------X/X--X-X---X-X-X-X/X-XX-----X-X--|
G|-7/9--9-9-----7/9--9-9------9/10-1010--5-5-5-5/7-77-----9-9--|
C|-------------------------------------------------------------|

D|--------------------------------------------------------|
A|--------------------------------------------------------|
F|-9/11-1111----9/11-1111----11/12-1212--14-14-14-14/9-99-|
C|-X/X--X-X-----X/X--X-X------X/X--X-X---X--X--X--X-/X-XX-|
G|-7/9--9-9-----7/9--9-9------9/10-1010--12-12-12-12/7-77-|
C|--------------------------------------------------------|

[00:42]
Guitar 1 plays something like that in the background during a long time.
D|-------------------------||
A|-------14-------------14-||
F|-16-17----16-17-16-17----||
C|-------------------------||
G|-------------------------||
C|-------------------------||

But this first guitar can also play these little notes.
D|-5-------5-------5------5-----|-----12-------12---5-----------12-|
A|---3-2-----3-2-----3------3---|---8--------8--------3-------8----|
F|---------------------3------6-|-9--------9------------3---9------|
C|------------------------------|----------------------------------|
G|------------------------------|----------------------------------|
C|------------------------------|----------------------------------|

Guitar 2 [01:25]
D|--------------------------------------------|--------------------------------------------------|
A|--------------------------------------------|--------------------------------------------------|
F|--------------------------------------------|--------------------------------------------------|
C|----------------------------------7777-9999-|---------------------10-1010-10-10------7777-9999-|
G|-7-77-7-10-1010-10--3-33-3------XX7777-9999-|-7-77-7--10-1010-10---8--8-8--8--8------7777-9999-|
D|-7-77-7--8--8-8--8--3-33-3------XX5555-7777-|-7-77-7---8--8-8--8---8--8-8--8--8------5555-7777-|
A|-5-55-5--8--8-8--8--1-11-1------------------|-5-55-7---8--8-8--8-------------------------------|
D|--------------------------------------------|--------------------------------------------------|

Guitar 1 is a bit hidden so i hope it's correct.
D|----------------------------------------|
A|----------------------------------------|
F|-12/11----------------14-14----17-16-12-|
C|--X/X-----------------X--X-----X--X--X--|
G|-10/9-----------------12-12----15-14-10-|
C|----------------------------------------|
  ^[01:23]^                 ^[01:38]^

[01:46]
Then guitars play again these parts.
Guitar 1 plays something like that in the background during a long time.
D|-------------------------||
A|-------14-------------14-||
F|-16-17----16-17-16-17----||
C|-------------------------||
G|-------------------------||
C|-------------------------||

But this first guitar can also play these little notes.
D|-5-------5-------5------5-----|
A|---3-2-----3-2-----3------3---|
F|---------------------3------6-|
C|------------------------------|
G|------------------------------|
C|------------------------------|

[02:07]
Almost the same riff for the guitar 2.
D|--------------------------------------------|--------------------------------------------------|
A|--------------------------------------------|--------------------------------------------------|
F|--------------------------------------------|--------------------------------------------------|
C|----------------------------------7777-9999-|---------------------10-1010-10-10------7777-9999-|
G|-7-77-7-10-1010-10--3-33-3------XX7777-9999-|-7-77-7--10-1010-10---8--8-8--8--8----XX7777-9999-|
D|-7-77-7--8--8-8--8--3-33-3------XX5555-7777-|-7-77-7---8--8-8--8---8--8-8--8--8----XX5555-7777-|
A|-5-55-5--8--8-8--8--1-11-1------------------|-5-55-7---8--8-8--8-------------------------------|
D|--------------------------------------------|--------------------------------------------------|

And something a bit different for the guitar 1.
D|---------------------------------------------|
A|---------------------------------------------|
F|-XXX--12/11----------------14-14----17-16-12-|
C|-XXX---X/X-----------------X--X-----X--X--X--|
G|-XXX--10/9-----------------12-12----15-14-10-|
C|---------------------------------------------|

[02:29]
Cool break here for the first guitar, at the second time the other guitar plays this too.
D|----------------------------------------------------------------------|
A|----------------------------------------------------------------------|
F|----------------------------------------------------------------------|
C|------------------------------------------------------------7777-9999-|
G|-777-777-7777--101010-101010-10101010--333-333-3333-333-33--7777-9999-|
D|-777-777-7777---8-8-8--8-8-8--8-8-8-8--333-333-3333-333-33--5555-7777-|
A|-555-555-5555---8-8-8--8-8-8--8-8-8-8--111-111-1111-111-11------------|
D|----------------------------------------------------------------------|

[03:01]
SOLO.
D|-----------------------------------|
A|-----------------------------------|
F|-/9--7-----------------------------|
C|-------9--7--5--7--9--5----4--5--0-|
G|-----------------------------------|
C|-----------------------------------|

[03:11]
Same kind of riffs fo both guitars.
D|------------------------------------|-------------------------------------------------|
A|------------------------------------|-------------------------------------------------|
F|------------------------------------|-------------------------------------------------|
C|------------------------------------|---------------------10-1010-10--10-1010-10------|
G|-7-77-7-10-1010-10--3-33-3--3-33-3--|-7-77-7--10-1010-10---8--8-8--8---8--8-8--8------|
D|-7-77-7--8--8-8--8--3-33-3--3-33-3--|-7-77-7---8--8-8--8---8--8-8--8---8--8-8--8------|
A|-5-55-5--8--8-8--8--1-11-1--1-11-1--|-5-55-7---8--8-8--8------------------------------|
D|------------------------------------|-------------------------------------------------|

Guitar 1 is a bit hidden so i hope it's correct.
D|----------------------------------------|
A|----------------------------------------|
F|-12/11----------------14-14----17-16-12-|
C|--X/X-----------------X--X-----X--X--X--|
G|-10/9-----------------12-12----15-14-10-|
C|----------------------------------------|

[03:54]
Guitar 1 will play the intro until the end.
D|-19----------19----------19----------19----------||
A|----17----17----17----17----17----17----17----17-||
F|-------20----------20----------17----------17----||
C|-------------------------------------------------||
G|-------------------------------------------------||
C|-------------------------------------------------||

Guitar 2
Outro.
D|-------------------------------------------------------------------------------------|
A|-------------------------------------------------------------------------------------|
F|-------------------------------------------------------------------------------------|
C|-------------------------------------------------------------------------------------|
G|-----------------------------------------------------7-----5-------------7-----5-----|
C|-7-6-5---5-6-7-6-5---55-6-7-6-5---5-6-7-6-5---55-6-7---7-6---6-5---5-6-7---7-6---6-5-|

D|-----------------------------------------------------------------|
A|-----------------------------------------------------------------|
F|-----------------------------------------------------------------|
C|-----------------------------------------------------------------|
G|---------------------------------7-----5-------------7-----5-----|
C|-55-6-7-6-5---5-6-7-6-5---55-6-7---7-6---6-5---5-6-7---7-6---6-5-|

And here it is.

************************************

| /   slide up
| \   slide down
| h   hammer-on
| p   pull-off
| ~   vibrato
| +   harmonic
| x   Mute note
| b   Bend
| pb  Pre-bend
| br  Bend release
| pbr Pre-bend release
| brb Bend release bend

************************************
Добавлено: 01.08.2013
Другие материалы по этой песне:
  • Аккорды и текст

Страница создана 01.08.2013
http://primanota.ru/kevin-sherwood-elena-siegman/the-one-chords.htm
Привет, Гость.
Предлагаем пройти революционный курс по гитаре.
Подарок от PrimaNota.Ru, забирай!