PrimaNota.ru - самый крупный в мире бесплатный архив песенных текстов, аккордов, табулатур и нот


Kevin Parent - Boomrang - бас-таба, видео

Регистрация Запомнить меня
Войти через:  Facebook Google Twitter Vk Yandex Mail.ru

Kevin Parent - Boomrang - бас-таба, видео

Печатать
Просмотров: 83
Title: Boomrang
Artist: Kevin Parent 
Tabber: Steph
Email: cyberbassist@hotmail.com


   h h
G|-5-----|
D|---5---|
A|-------|
E|-------|

   A
G|-----------------------------------------------------------------------|
D|-----------------------------------------------------------------------|
A|-----------------------------------------------------------------------|
E|-5-5-5-5-5-5-5-5--5-5-5-5-5-5-5-5--5-5-5-5-5-5-5-5--5-5-5-5-5-5-5-5----|

   A
G|-----------------------------------------------------------------------|
D|-----------------------------------------------------------------------|
A|-----------------------------------------------------------------------|
E|-5-5-5-5-5-5-5-5--5-5-5-5-5-0-3-4-5--5-5-5-5-5-5-5-5--5-5-5-5-5-0-3-4--|

Verse1:
    A                   (slide 0:31)    A                (slide 0:39)
G|-------------------|---------------|------------------|----------------|
D|*-----------------*|---------------|*----------------*|----------------|
A|*-----------------*|-10/12\10/12\--|*----------------*|-9/12\10--------|
E|--5-5-5-5-5-5-5-5--|---------------|--5-5-5-5-5-5-5-5-|----------------|

   A
G|-----------------------------------------------------------------------|
D|-----------------------------------------------------------------------|
A|-----------------------------------------------------------------------|
E|-5-5-5-5-5-5-5-5--5-5-5-5-5-5-5-5--5-5-5-5-5-5-5-5--5-5-5-5-5-0-3-4----|
    A
G|-------------------|
D|*-----------------*|
A|*-----------------*|
E|--5-5-5-5-5-5-5-5--|

Chorus: 
   A               E               G               D
G|-----------------------------------------------------------------------|
D|-----------------------------------------------------------------------|
A|-------------------------------------------------5-5-5-5-5-5-5-5-------|
E|-5-5-5-5-5-5-5-5-0-0-0-0-0-0-0-0-3-3-3-3-3-3-3-3-----------------------|

   A               E               G               D         C
G|-----------------------------------------------------------------------|
D|-----------------------------------------------------------------------|
A|-------------------------------------------------5-5-5-5-5-3~----------|
E|-5-5-5-5-5-5-5-5-0-0-0-0-0-0-0-0-3-3-3-3-3-3-3-3-----------------------|


Verse2: 1:09
   A
G|-----------------------------------------------------------------------|
D|-----------------------------------------------------------------------|
A|-----------------------------------------------------------------------|
E|-5-5-5-5-5-5-5-5--5-5-5-5-5-0-3-4-5--5-5-5-5-5-5-5-5--5-5-5-5-5-5-5-5--|

  A
G|-----------------------------------------------------------------------|
D|------------------------------------------------------------------10---|
A|---------------------------------------------------------/12-10-12--12-|
E|5-5-5-5-5-5-5-5--5-5-5-5-5-0-3-4-5--5-5-5-5-5-5-5-5--5-5---------------|
  
   A
G|-----------------------------------------------------------------------|
D|-----------------------------------------------------------------------|
A|-----------------------------------------------------------------------|
E|-5-5-5-5-5-5-5-5--5-5-5-5-5-0-3-4-5--5-5-5-5-5-5-5-5--5-5-5-5-5-0-3-4--|
    
    A
G|-------------------|
D|*-----------------*|
A|*-----------------*|
E|--5-5-5-5-5-5-5-5--|

go to Chorus
then

Come on Kevin...1:54

    B               F#               A                E
G|-----------------------------------------------------------------------|
D|*---------------------------------------------------------------------*|
A|*-2-2-2-2-2-2-2-2-----------------------------------------------------*|
E|------------------2-2-2-2-2-2-2-2--5-5-5-5-5-5-5-5--0-0-0-0-0-0-0-0----|

   A               E               G                D
G|-----------------------------------------------------------------------|
D|*---------------------------------------------------------------------*|
A|*-------------------------------------------------5-5-5-5-5-5-5-5-----*|
E|-5-5-5-5-5-5-5-5-0-0-0-0-0-0-0-0-3-3-3-3-3-3-3-3-----------------------|

2:32

G|-----------------------------------------------------------------------|
D|-----------------------------------------------------------------------|
A|------------5~---------------------------------------------------------|
E|-5~--0~--3~----5~--0~-3~-- cric pow !!!--------------------------------|

Chorus 1X

end

 A               E        G           D
G|-------7766------------------7766-----------------------|
D|*------------------------------------------------------*|
A|*-----------------------------------5-55---------------*|
E|-5-55---------0-00-000--3-33-------------0-3-4----------|


Last note A
Добавлено: 05.05.2012
Другие материалы по этой песне:
  • Аккорды и текст

Страница создана 05.05.2012
http://primanota.ru/kevin-parent/boomrang-chords.htm
Привет, Гость.
Предлагаем пройти революционный курс по гитаре.
Подарок от PrimaNota.Ru, забирай!