PrimaNota.ru - самый крупный в мире бесплатный архив песенных текстов, аккордов, табулатур и нот


Kevin Martin and The Hiwatts - Enemy - текст песни, таба, видео

Регистрация Запомнить меня
Войти через:  Facebook Google Twitter Vk Yandex Mail.ru

Kevin Martin and The Hiwatts - Enemy - текст песни, таба, видео

Печатать
Просмотров: 85
Kevin Martin and the Hiwatts (the former lead singer of Candlebox)
"Enemy"
>From the album "The Possibilty of Being"
Tympanic Records (c) 2003

Transcribed by Sean Hennesy
Submitted by Slade Ham

Enemy
Kevin Martin and the Hiwatts



Intro Riff:
--------------------------------------------------------------
---------5---5-5-5/-3-3-3-3-----------------------------
-----------------------------------0-------------------------
-----7-------7-7-7/-4-4-4-4------2---------------------
--0----------0-0-0--0-0-0-0----3-------2---0-2/-5---
-----------------------------------------2-------------------

Verse:
---------------------------------------------------------------------------------------------
---------------------------------------------------------------------------------------------
---------------------------------------------------------------------------------------------
--5h7-7-7-7-5h7-7-7-7-5h7-7-7-5h7-7-7-7-5h7-7-7-7-5h7-7-7-Repeat
--0-0-0-0-0-0-0-0-0-0-0-0-0-0-0-0-0-0-0-0-0-0-0-0-0-0-0-0---------------
---------------------------------------------------------------------------------------------

Chorus

A G F
A C F
A G F
A C F

Riff in Chorus
----------------------------------------------------------------
----------------------------------------------------------------
---7b9b7p5------- Play this between each chord
-----------5----------------------------------------------------
----------------------------------------------------------------
----------------------------------------------------------------

Solo / Bridge
^ÓWhat we need is a real uprising^Ô
     C                         F
------------------------------------------------------------------
8/10/8-------8/10/8-------8/10/8-------8/10/8-------
-----------------------------------------------------Repeat---
--------5------------5------------5------------5---------------
------------------------------------------------------------------
------------------------------------------------------------------

Ending

Just mess around in A minor
And when I end the song, I usually just hit all the strings open and fade 
out w/ volume

- The Kid ô¿ô

     
Добавлено: 22.10.2013
Другие материалы по этой песне:
  • Аккорды и текст

Страница создана 27.04.2012
http://primanota.ru/kevin-martin-and-the-hiwatts/enemy-chords.htm
Привет, Гость.
Предлагаем пройти революционный курс по гитаре.
Подарок от PrimaNota.Ru, забирай!