PrimaNota.ru - самый крупный в мире бесплатный архив песенных текстов, аккордов, табулатур и нот


Kevin Macleod - Pop Goes The Weasel - таба, видео

Регистрация Запомнить меня
Войти через:  Facebook Google Twitter Vk Yandex Mail.ru

Kevin Macleod - Pop Goes The Weasel - таба, видео

Печатать
Просмотров: 133
Listen to the song to get the rhythm.

E|--------------------|
B|--------------------|
G|-------------0------|
D|-------0-0-1---1----|
A|---3-3------------3-|
E|-3------------------|

E|--------------------|
B|--------------------|
G|--------------------|
D|-------0-0-1--------|
A|---3-3------------3-|
E|-3------------------|

E|------------------|
B|------------------|
G|-----------0------|
D|-----0-0-1---1----|
A|-3-3------------3-|
E|------------------|

E|------------------|
B|------------------|
G|-1----------------|
D|-----0---3-1------|
A|----------------3-|
E|------------------|
Добавлено: 25.11.2015
Другие материалы по этой песне:
  • Аккорды и текст

Страница создана 25.11.2015
http://primanota.ru/kevin-macleod/pop-goes-weasel-chords.htm
Привет, Гость.
Предлагаем пройти революционный курс по гитаре.
Подарок от PrimaNota.Ru, забирай!