PrimaNota.ru - самый крупный в мире бесплатный архив песенных текстов, аккордов, табулатур и нот


Kevin Macleod - Blip Steam - таба, видео

Регистрация Запомнить меня
Войти через:  Facebook Google Twitter Vk Yandex Mail.ru

Kevin Macleod - Blip Steam - таба, видео

Печатать
Просмотров: 116
This isn't the whole song but it's easy to base the rest of it off of this since it's all very similar to it.
Tab by GoobHundred

Blip Stream
by Kevin Macleod

E|--7-5-4-0--2-3-2-0---0-7-5--|--7-5-4-0--2-3-2-0---0-7-5-8-7-5--0-2-4-|-7-5-4-0--2-3-2-0---0-7-5--|
B|------------------0-1-----1-|-0----------------0-1-------------------|-----------------0-1-----1-|
G|----------------------------|----------------------------------------|---------------------------|
D|----------------------------|----------------------------------------|---------------------------|
A|----------------------------|----------------------------------------|---------------------------|
E|----------------------------|----------------------------------------|---------------------------|

E|-0-7-5-4-0--2-3-2-0---0-7-5---3-3-3-3-2-2-2-2-|-777777-555555-444444-0--2-3-2-0-----0-7-5---|
B|-------------------0-1------------------------|---------------------------------0-1-------1-|
G|----------------------------------------------|---------------------------------------------|
D|----------------------------------------------|---------------------------------------------|
A|----------------------------------------------|---------------------------------------------|
E|----------------------------------------------|---------------------------------------------|

E|-777777-555555-444444-0--2-3-2-0-----0-777777-555555-888888-777777-555555--0-2-4-|
B|---------------------------------0-1---------------------------------------------|
G|---------------------------------------------------------------------------------|
D|---------------------------------------------------------------------------------|
A|---------------------------------------------------------------------------------|
E|---------------------------------------------------------------------------------|
Добавлено: 20.03.2016
Другие материалы по этой песне:
  • Аккорды и текст

Страница создана 20.03.2016
http://primanota.ru/kevin-macleod/blip-steam-chords.htm
Привет, Гость.
Предлагаем пройти революционный курс по гитаре.
Подарок от PrimaNota.Ru, забирай!