PrimaNota.ru - самый крупный в мире бесплатный архив песенных текстов, аккордов, табулатур и нот


Kevin Devine - You Wouldnt Have To Ask - таба, видео

Регистрация Запомнить меня
Войти через:  Facebook Google Twitter Vk Yandex Mail.ru

Kevin Devine - You Wouldnt Have To Ask - таба, видео

Печатать
Просмотров: 91
Mike G
You Wouldn't Have To Ask
Kevin Devine

+ = palm mute

e--------------------------0---------------------------|
B--------------------------0---------------------------|
G--2-----6-----7-----2-----1-2-----6------7------2-----|
D--3--X8-7-X8--8-X8--3-X4--2-3-X8--7--X8--8--X8--3-----|X8
A--3-----7-----8-----3-----2-3-----7------8------3-----|
E--1-----5-----6-----1-----0-1-----5------6------1-----|
   +     +     +     +     +       +      +      +

e---1-------------1------|
B---3--X4--3--X4--1--X8--|
G---2------3------2------|  X2
D---0------3------3------|
A----------1------3------|
E-----------------1------|


e------------------------------|
B------------------------------|
G--2------6------7------2------|
D--3--X8--7--X8--8--X8--3--X8--|
A--3------7------8------3------|
E--1------5------6------1------|
   +      +      +      +

e---1-------------1-|
B---3--X4--3--X4--1-|X8
G---2------3------2-|
D---0------3------3-|
A----------1------3-|
E-----------------1-|

e---1-------------3333333333333333-|
B---3--X4--3--X4--3333333333333333-|
G---2------3------3333334444444444-|
D---0------3------5555555333333333-|
A----------1------5555555555555555-|
E-----------------3333333333333333-|

e---------------------------------------------------|
B---------10-------------10-------------------------|
G--7------10------7------10------9--------7---------|
D--8--X8--10--X8--8--X8--10--X4--10--X4---8--X16----|
A--8------8-------8------8-------10-------8---------|
E--6--------------6--------------8--------6---------|

e---1-------------1------------|
B---3--X4--3--X4--1--X8--------|
G---2------3------2------------|
D---0------3------3------------|
A----------1------3------------|
E-----------------1------------|


e-----------------------------------0---------------------------------|
B-----------------------------------0---------------------------------|
G--2------6------7------ ----2------1------2------6------7------2-----|
D--3--X8--7--X8--8--X4-7--X4-3--X4--2--X4--3--X8--7--X8--8--X8--3-----|X8
A--3------7------8-----8-----3------2------3------7------8------3-----|
E--1------5------6-----8-----1------0------1------5------6------1-----|
   +      +      +     +     +             +      +      +      +

e---1-------------1------------|
B---3--X4--3--X4--1--X8--------|
G---2------3------2------------|  X4
D---0------3------3------------|
A----------1------3------------|
E-----------------1------------|

e------3--------------------------------------------------|
B------0---2---3---6---8---10-----------------------------|
G--2---0---2---3---6---8---10-----------------------------|
D--3---0---2---3---6---8---10-----------------------------|
A--3---2-------1---4---6---8------------------------------|
E--1---3--------------------------------------------------|
Добавлено: 17.04.2012
Другие материалы по этой песне:
  • Аккорды и текст

Страница создана 17.04.2012
http://primanota.ru/kevin-devine/you-wouldnt-have-to-ask-chords.htm
Привет, Гость.
Предлагаем пройти революционный курс по гитаре.
Подарок от PrimaNota.Ru, забирай!