PrimaNota.ru - самый крупный в мире бесплатный архив песенных текстов, аккордов, табулатур и нот


Kevin Devine - Protest Singer - таба, видео

Регистрация Запомнить меня
Войти через:  Facebook Google Twitter Vk Yandex Mail.ru

Kevin Devine - Protest Singer - таба, видео

Печатать
Просмотров: 110
-------------------------------------------------------------------------------
                             Protest Singer - Kevin Devine
-------------------------------------------------------------------------------
Tabbed by: Nick Stola
Email: letingoffhapynes@aim.com


there are hammer ons and pull offs on the chords throughout the song
 that i will leave you to figure out. and also some of the chords are
 played a little different sometimes but mostly this is accurate so
enjoy

Tuning: standard capo on 2


  i stopped today...


e|----3------3--------------------------------------------------------------------------|
B|----3------3-----h3-------------------------------------------------------------------|
G|----0------0--------------------------------------------------------------------------|
D|----0------2--------------------------------------------------------------------------|
A|----2-0h2--3-p0-----------------------------------------------------------------------|
E|----3---------------------------------------------------------------------------------|


i knew the only...


e|-3--3--3--3----------------------------------------------------------------------|
B|-3--3--3--3----------------------------------------------------------------------|
G|-0--0--0--0----------------------------------------------------------------------|
D|-2--0--2--0----------------------------------------------------------------------|
A|-3--2--3--2----------------------------------------------------------------------|
E|----3-----3----------------------------------------------------------------------|


and im convinced it only rains...

e|-3--3--------------------3------------------------------------------------------------|
B|-3--3--------------------3------------------------------------------------------------|
G|-0--2---2-0-2-0------0---0------------------------------------------------------------|
D|-2---------------0h2-----2------------------------------------------------------------|
A|-3-----------------------3------------------------------------------------------------|
E|--------------------------------------------------------------------------------------|


and im surrounded by...


e|-3--3--3------------------3--3--3--3--3--3--3--3--|
B|-3--3--3------------------3--3--3--3--3--3--3--3--|
G|-2--0--2-2-0-2-0----0-----0--2--0--0--0--2--0--0--|
D|----2-----------0h2-------2-----2--0--2-----2--0--|
A|----2---------------------3-----2--2--3-----2--2--|
E|-----------------------------------3-----------3--|

and i wanted to write...

e|--3--3--3--3------------------------------------------------------------------------|
B|--3--3--3--3------------------------------------------------------------------------|
G|--0--0--0--0------------------------------------------------------------------------|
D|--0--2--0--2------------------------------------------------------------------------|
A|--2--3--2--3------------------------------------------------------------------------|
E|--3-----3---------------------------------------------------------------------------|

kind of like a soundtrack...


e|--3--3--3--3---------------------------------------------------------------------|
B|--3--3--3--3---------------------------------------------------------------------|
G|--0--0--0--0---------------------------------------------------------------------|
D|--0--2--0--2---------------------------------------------------------------------|
A|--2--3--2--3---------------------------------------------------------------------|
E|--3-----3------------------------------------------------------------------------|


i guess i wanted..

e|--3--3--3----------------------------------------------------------------------------|
B|--3--3--3----------------------------------------------------------------------------|
G|--0--2--0--2-0-2-0-----0-------------------------------------------------------------|
D|--2-----2----------0h2---------------------------------------------------------------|
A|--3-----2----------------------------------------------------------------------------|
E|-------------------------------------------------------------------------------------|


i wanted to make you feel everything


e|-3--3--3-------------------------------------------------------------------------------|
B|-3--3--3-------------------------------------------------------------------------------|
G|-0--2--0-----------------2-0-4-2-0-----------------------------------------------------|
D|-2-----2---------------------------2---------------------------------------------------|
A|-3-----2-------------------------------------------------------------------------------|
E|---------------------------------------------------------------------------------------|

you may call me...
but im only...
i don't believe in...
can you hear me


e|--3--3--3--3---------------------------------------------------------------------|
B|--3--3--3--3---------------------------------------------------------------------|
G|--0--2--0--0---------------------------------------------------------------------|
D|--2-----2--0---------------------------------------------------------------------|
A|--3-----2--2---------------------------------------------------------------------|
E|-----------3---------------------------------------------------------------------|


ends on


e|----3-----------------------------------------------------------------------|
B|----3-----------------------------------------------------------------------|
G|----0-----------------------------------------------------------------------|
D|----0-----------------------------------------------------------------------|
A|----2-----------------------------------------------------------------------|
E|----3-----------------------------------------------------------------------|
Добавлено: 29.05.2012
Другие материалы по этой песне:
  • Аккорды и текст

Страница создана 29.05.2012
http://primanota.ru/kevin-devine/protest-singer-chords.htm
Привет, Гость.
Предлагаем пройти революционный курс по гитаре.
Подарок от PrimaNota.Ru, забирай!