PrimaNota.ru - самый крупный в мире бесплатный архив песенных текстов, аккордов, табулатур и нот


Kevin Devine - Little Bulldozer - аккорды и текст, таба, видео

Регистрация Запомнить меня
Войти через:  Facebook Google Twitter Vk Yandex Mail.ru

Kevin Devine - Little Bulldozer - аккорды и текст, таба, видео

Печатать
Просмотров: 71
Little Bulldozer
Kevin Devine
tuning - half step down

intro/ main riff thing
eb|--------2-2-2---2-2-------------------------------------------|
bb|2-2-----3-3-3---3-3-2-2-3-3-3---3-3-----------------7-7-2-2-2-|
gb|2-2-----2-2-2---2-2-2-2-4-4-4---4-4-3-3-4-4-4---4-4-7-7-2-2-2-|
db|2-2-6-6-0-0-0---0-0-2-2-4-4-4---4-4-4-4-5-5-5---5-5-7-7-2-2-2-|
ab|0-0-4-4-------------0-0-2-2-2---2-2-4-4-5-5-5---5-5-5-5-0-0-0-|
eb|------------------------------------2-2-3-3-3---3-3-----------|

verse
    D   G      D G    D   G     D     A
  Some nights, I bolt and sleep in the car
   D         G    D   G   D    G   D       A
  From the hood, talk at your face in the stars
F#                       Bm
  I tell you versions of everything
F#                        D C# Bm
  We share a smoke in the dark

chorus
          (G G G) D     (F#) Bm  (Bm A G)  G    D A
I need you C-C-C-closer,      Little Bulldozer
eb|-------------------------------------------------------------------------|
bb|-------------------------------------------------------------------------|
gb|-------------------------------------------------------------------------|
db|5-5-5-12-12-12-12-12-12-4-9-9-9-9-9-9--9-7-5-5-5-5-5-5-5--12-7-7-7-7-7-7-|
ab|5-5-5-12-12-12-12-12-12-4-9-9-9-9-9-9--9-7-5-5-5-5-5-5-5--12-7-7-7-7-7-7-|
eb|3-3-3/10-10-10-10-10-10\2/7-7-7-7-7-7--7-5-5-3-3-3-3-3-3--10-5-5-5-5-5-5-|

Verse
Wake up - I'm nowhere, drifting dead
(Keep inching forward you better find her)
I'm shot, I'm scratching snakes in my skin
(I want a fistfight, a cheap reminder)
I'm always answering everything
"When can I see you again?"

chorus

solo is the main riff/intro
followed by
Bm A E G F#
                      Bm
My little mischievous everything
F#                    D C# Bm
My little shot in the dark

Main riff for this part

(I thought she wasn't coming
Almost gave up on waiting
So certain of disaster
I almost didn't ask her
But I did.)

End on D
Добавлено: 23.03.2014
Другие материалы по этой песне:
  • Аккорды и текст

Страница создана 23.03.2014
http://primanota.ru/kevin-devine/little-bulldozer-chords.htm
Привет, Гость.
Предлагаем пройти революционный курс по гитаре.
Подарок от PrimaNota.Ru, забирай!