PrimaNota.ru - самый крупный в мире бесплатный архив песенных текстов, аккордов, табулатур и нот


Kevin Devine - Letting A Good One Go - таба, видео

Регистрация Запомнить меня
Войти через:  Facebook Google Twitter Vk Yandex Mail.ru

Kevin Devine - Letting A Good One Go - таба, видео

Печатать
Просмотров: 77
Уроки эстрадного вокала в Санкт-Петербурге
-----------------------------------------------------------------------------
                  Letting a Good One Go- Kevin Devine
-----------------------------------------------------------------------------

Tuning: Standard

Intro:
Guitar 1: (Distorted Electric)
e|----------------------------------------|
B|----------------------------------------|
G|----------------------------------------|
D|----------------------------------------|  x4
A|---5-------4--2-----5-------4--2--0-----|
E|-------5----------------5------------3--|

Guitar 2: (Acoustic)
e|-------------------------------------------------|
B|-------------------------------------------------|
G|-------------------------------------------------|
D|0-0-0-0-0-0-0-0-0-0-0-0-0-0-0-0-0-0-0-0-0-0-0-0--|
A|-5-5-5-5-5-5-5-5-5-5-5-5-5-5-5-5-5-5-5-5-5-9-7-5-|
E|-------------------------------------------------|

e|---------------------------------------------------|
B|---------------------------------------------------|
G|---------------------------------------------------|
D|0-0-0-0-0-0-0-0-0-0-0-0-0-0-0-0-0-0-0-0-0-0-0-0--0-|
A|-5-5-5-5-5-5-5-5-5-5-5-5-5-5-5-5-5-5-5-5-5-4-5-4h5-|
E|---------------------------------------------------|

Verse: "I think I thought so much about losing you..."
Guitar 1:
e|----------------------------------------|
B|----------------------------------------|
G|----------------------------------------|
D|----------------------------------------|  x2
A|---5-------4--2-----5-------4--2--0-----|
E|-------5----------------5------------3--|

e|-------------------------------------------|
B|-------------------------------------------|
G|-------------------------------------------|
D|-------------------------------------------|  x2
A|---5-------4--2--0-----5-------4--2--0-----|
E|-------5-----------3------5------------3---|


Guitar 2:
e|--------------------------------------------------|
B|--------------------------------------------------|
G|--------------------------------------------------|
D|0-0-0-0-0-0-0-0-0-0-0-0-0-0-0-0-0-0-0-0-0-0-0-0-0-| x4
A|-5-5-5-5-5-5-5-5-5-5-5-5-5-5-5-5-5-5-5-5-5-5-5-5--|
E|--------------------------------------------------|

Verse 2: "And I turned you into..."
Guitar 1:
e|-------------------|      e|--------------------|
B|-------------------|      B|--------------------|
G|-------------------|      G|--------------------|
D|-------------------|  x3  D|--------------------|
A|---5---------2-----|      A|---5---------2---4--|
E|-------5-----------|      E|-------5------------|

e|------------------------------------------|
B|------------------------------------------|
G|------------------------------------------|
D|------------------------------------------|  x3
A|---5-------4--2-------5-------4--2--0-----|
E|-------5-----------------5------------3---|

e|----------------------|
B|----------------------|
G|----------------------|
D|----------------------|  x3
A|---5-------4--2--0----|
E|-------5-----------3--|

e|----------------------|
B|----------------------|
G|----------------------|
D|----------------------|
A|---5-------4--2--0----|
E|-------5-----------3--|

Guitar 2:
e|-------------------------|      e|-------------------------|
B|-------------------------|      B|-------------------------|
G|---4-----6-----7-----7---|      G|---4-----6-----7-----9---|
D|-------------------------|  x3  D|-------------------------|
A|-5---5-5---5-5---5-5----5|      A|-5---5-5---5-5---5-5----5|
E|5-5-5-5-5-5-5-5-5-5-5--5-|      E|5-5-5-5-5-5-5-5-5-5-5--5-|

e|-------------------------------------------------|
B|-------------------------------------------------|
G|-------------------------------------------------|
D|0-0-0-0-0-0-0-0-0-0-0-0-0-0-0-0-0-0-0-0-0-0-0-0--|
A|-5-5-5-5-5-5-5-5-5-5-5-5-5-5-5-5-5-5-5-5-5-9-7-5-|
E|-------------------------------------------------|

e|-------------------------------------------------|
B|-------------------------------------------------|
G|-------------------------------------------------|
D|0-0-0-0-0-0-0-0-0-0-0-0-0-0-0-0-0-0-0-0-0-0-0-0--|
A|-5-5-5-5-5-5-5-5-5-5-5-5-5-5-5-5-5-5-5-5-5-5-5-5-|
E|-------------------------------------------------|

e|---------------------------------------------------|
B|---------------------------------------------------|
G|---------------------------------------------------|
D|0-0-0-0-0-0-0-0-0-0-0-0-0-0-0-0-0-0-0-0-0-0-0-0--0-|
A|-5-5-5-5-5-5-5-5-5-5-5-5-5-5-5-5-5-5-5-5-5-4-5-4h5-|
E|---------------------------------------------------|

e|-------------------------------------------------|
B|-------------------------------------------------|
G|-------------------------------------------------|
D|0-0-0-0-0-0-0-0-0-0-0-0-0-0-0-0-0-0-0-0-0-0-0-0--| x2
A|-5-5-5-5-5-5-5-5-5-5-5-5-5-5-5-5-5-5-5-5-5-5-5-5-|
E|-------------------------------------------------|

Chorus: "Move on, Steady now..."
Guitar 1:
e|-----------------------------------|
B|-----------------------------------|
G|-----------------------------------|
D|--------0--------0-----0-----0-----|  x2
A|----2--------0------0-----0--------|
E|--0---0----2---2-------------------|

e|-----------------------------------------|
B|-----------------------------------------|
G|-----------------------------------------|
D|--------0--------0-----0-----0---2--0----|
A|----2--------0------0-----0------------4-|
E|--0---0----2---2-------------------------|


e|-------------------------------------------|
B|-------------------------------------------|
G|-------------------------------------------|
D|--------0--------0-----0-----0-----0-----0-|
A|----2--------0------0-----0-----0-----0----|
E|--0---0----2---2---------------------------|

Guitar 2:
e|-------------------------------------------------|
B|-------------------------------------------------|
G|-------------------------------------------------|
D|0-0-0-0-0-0-0-0-0-0-0-0-0-0-0-0-0-0-0-0-0-0-0-0--| x4
A|-5-5-5-5-5-5-5-5-5-5-5-5-5-5-5-5-5-5-5-5-5-5-5-5-|
E|-------------------------------------------------|

Refrain: "You're letting a good one go..."
Guitar One:
e|------------------------------------------|
B|------------------------------------------|
G|------------------------------------------|
D|------------------------------------------|
A|---5-------4--2-------5-------4--2--0-----|
E|-------5-----------------5------------3---|

e|----------------------|
B|----------------------|
G|----------------------|
D|----------------------|  x4
A|---5-------4--2--0----|
E|-------5-----------3--|

Guitar 2:
e|-------------------------------------------------|
B|-------------------------------------------------|
G|-------------------------------------------------|
D|0-0-0-0-0-0-0-0-0-0-0-0-0-0-0-0-0-0-0-0-0-0-0-0--|
A|-5-5-5-5-5-5-5-5-5-5-5-5-5-5-5-5-5-5-5-5-5-9-7-5-|
E|-------------------------------------------------|

e|-------------------------------------------------|
B|-------------------------------------------------|
G|-------------------------------------------------|
D|0-0-0-0-0-0-0-0-0-0-0-0-0-0-0-0-0-0-0-0-0-0-0-0--| x2
A|-5-5-5-5-5-5-5-5-5-5-5-5-5-5-5-5-5-5-5-5-5-5-5-5-|
E|-------------------------------------------------|

Outro/Solo:
Guitar 1:
e|--------------------------------------------|
B|--------------------------------------------|
G|--------------------------------------------|
D|---------------------------------7777-------|
A|---5-------4--2-------5-------4--5555-5555--|
E|-------5-----------------5------------3333--|

e|--------------------------------------------|
B|--------------------------------------------|
G|--------------------------------------------|
D|--------------------------------------------|
A|---5-------4--2-------5-------4--2--0-----5-|
E|-------5-----------------5------------3-----|

Guitar 2:
e|----------------------------------------------|
B|----------------------------------------------|
G|----------------------------------------------|
D|0-0-0-0-0-0-0-0-0-0-0-0-0-0-0-0-0-0-0000------| x2
A|-5-5-5-5-5-5-5-5-5-5-5-5-5-5-5-5-5-55555-5555-|
E|-----------------------------------------3333-|

Guitar 3: (Lead Acoustic/Solo)
e|----7h9-10---10-9-----------------------------10101010--10101010---|
B|--7---------------10-10h12---10--8p7---7p5----7-7-7-7---7-7-7-7----|
G|-------------------------------------------7-----------------------|
D|-------------------------------------------------------------------|
A|-------------------------------------------------------------------|
E|-------------------------------------------------------------------|

e|--10-9-----------------------------------------------|
B|--7----10--10-8-7--5----5/7-5----5/7-5----5/7-5--7---|
G|---------------------7--------7--------7-------------|
D|-----------------------------------------------------|
A|-----------------------------------------------------|
E|-----------------------------------------------------|
************************************

Far from perfect, I know, but hopefully it will at least help someone else tab a more 
version (since there isn't anything else up for this song yet)
Добавлено: 10.05.2012
Другие материалы по этой песне:
  • Аккорды и текст

Страница создана 10.05.2012
http://primanota.ru/kevin-devine/letting-a-good-one-go-chords.htm
Привет, Гость.
Предлагаем пройти революционный курс по гитаре.
Подарок от PrimaNota.Ru, забирай!