PrimaNota.ru - самый крупный в мире бесплатный архив песенных текстов, аккордов, табулатур и нот


Kevin Devine - Fever Moon - таба, видео

Регистрация Запомнить меня
Войти через:  Facebook Google Twitter Vk Yandex Mail.ru

Kevin Devine - Fever Moon - таба, видео

Печатать
Просмотров: 93
-------------------------------------------------------------------------------
                             Kevin Devine – Fever Moon
-------------------------------------------------------------------------------
Tabbed by: Matt

Tuning: Standard

Key: C minor

Chords:
Cmin
Ebmaj
Fmin
Gmaj
Bbmaj

If you look at his videos, K Dev plays this with a capo at the 3rd fret, but it really 
helps with some of the chord voicings. Otherwise it's not required


This is my first tab, so any comments would be greatly appreciated! Feel free to let me 
if I got this completely wrong. Enjoy!

           intro

       Cmin
e|---------------------------------------    ------------------------------------|
B|------4-------4------------------------    ------4-----------------------------|
G|------5-------5------------------------    ------5-----------------------------|
D|------5-------5------3h5p3------------- X3 ------5-----------------------------|
A|------3-------3------------------------    ------3-----------------------------|
E|-----------------------------3---6-----    ------------------------------------|

            verse #1

     Cmin X4   Gmaj X4   Bbmaj X2  Fmin       Ebmaj          Cmin
e|-----------------------------------4----------------------------------------|
B|-----4------------------6----------6----------4---------4---4---------------|
G|-----5---------4--------3----------5----------3---------3---5---------------|
D|-----5---------5--------3----------3----------5---------5---5---------------|
A|-----3---------5--------5---------------------6---------6---3---------------|
E|---------------3------------------------------------------------------------|

e|----------------------------------------------------------------------------|
B|---4-------------------------4----------------------------------------------|
G|---5-------------------------5----------------------------------------------|
D|---5----3h5p3----------------5----------------------------------------------|
A|---3-------------------------3----------------------------------------------|
E|----------------3---6-------------------------------------------------------|

                and repeat

                then on “I tied myself into knots” (verse #2)

       Cmin X2    Gmaj X2   Cmin X2   Fmin X2   Bbmaj X2   Ebmaj X2
e|--------------------------------------4-------------------------------------|
B|------4---------------------4---------6---------6----------4----------------|
G|------5-----------4---------5---------5---------3----------3----------------|
D|------5-----------5---------5---------3---------3----------5----------------|
A|------3-----------5---------3-------------------5----------6----------------|
E|------------------3---------------------------------------------------------|

       Cmin X2
e|----------------------------------------------------------------------------|
B|-------4--------------------------------------------------------------------|
G|-------5--------------------------------------------------------------------|
D|-------5------3h5p3---------------------------------------------------------|
A|-------3--------------------------------------------------------------------|
E|-----------------------3---6------------------------------------------------|

        repeat first verse through solo

        repeat verse #2 through “I bite your belly soft…”

        finish out on verse #1 and end with the intro


lyrics:
You're hot fog
I can feel you and you're not far off
I can taste you and you're what I want
But I don't know you even when you're in my arms.

You're burnt sky
A fever moon that makes the sun jealous at night
Your lava lips pour forth and branding iron eyes
Fix them unto me and bring me back to life.

You're quick sand
I work and fight but just sink deeper in the end
And every morning say I won't get stuck again
But it's nightfall baby here I always am.

I tie myself in knots
You come and shake me loose
I'm bound up in you
We push til you're through
Lit up with proof.

I bite your belly soft
You make maps on my back
You blockade the door
I sink to your floor
Get ready for war.

You're hot fog
The bad decision that I lie here waiting on
Staring down your next mistake can take so long
When I hear your footsteps babe, I don't care that it's wrong
No, I don't care that it's wrong
No, I don't care that it's wrong.


| /  slide up
| \  slide down
| h  hammer-on
| p  pull-off
| ~  vibrato
| +  harmonic
| x  Mute note
===============================================================================
Добавлено: 29.02.2012
Другие материалы по этой песне:
  • Аккорды и текст

Страница создана 29.02.2012
http://primanota.ru/kevin-devine/fever-moon-chords.htm
Привет, Гость.
Предлагаем пройти революционный курс по гитаре.
Подарок от PrimaNota.Ru, забирай!