PrimaNota.ru - самый крупный в мире бесплатный архив песенных текстов, аккордов, табулатур и нот


Kevin Devine - Carnival - таба, видео

Регистрация Запомнить меня
Войти через:  Facebook Google Twitter Vk Yandex Mail.ru

Kevin Devine - Carnival - таба, видео

Печатать
Просмотров: 133
Carnival will be on "My Brothers Blood" coming out in march.  this tab is for his live
and if u want to play along to the demo all u have to do is shift your hand one fret to
left.

E---------------------------------------------------------------|
B---------------------------------------------------------------|
G---------------------------------------------------------------|
D---------9---------7-5------5----7---8-------------------------|
A------10---10----6--------7---7--------------------------------|
E---10----------7-------7---------------------------------------|

E---------------------------------------------------------------|
B---------------------------------------------------------------|
G---------------------------------------------------------------|
D---------9---------7-5------5----------5-----------------------|
A------10---10----6--------7---7-----7----7---------------------|
E---10----------7-------7---------7-----------------------------|

E-----------------------------------------------------------------|
B-----------------------------------------------------------------|
G---------------------------------7-5-4-5-------------------------|
D---------9---------7-5------5------------------------------------|
A------10---10----6-------7----7----------------------------------|
E---10----------7-------7-----------------------------------------|

E---------------------------------------------------------------|
B---------------------------------------------------------------|
G---------------------------------------------------------------|
D---------9---------7-5------5----------5-----------------------|
A------10---10----6--------7---7-----7----7---------------------|
E---10----------7-------7---------7-----------------------------|

live he plays whats above the entire time but on the demo he play
E--------------3----2-------3-------3---------------------------|
B---1------1---3----3-------4---1---4---------------------------|
G---0---0--0---0----2---0---5---0---5---0-----------------------|
D---2---2--2---0----0---2---5---2---5---2-----------------------|
A---3---2--3---2----0---2---3---3---3---2-----------------------|
E---3---0--3---3--------0---3---3---3---0-----------------------|


for the second chord pull off g string a couple times.  listen to the song live.  the 
notes can be played while playing the em.

E---3--0--0-------3--0--0-----3--0--0-----------3--0--0---------|
B---0--0--0-------0--0--0-----0--0--0--3-1-0-1--0--0--0---------|
G---0--2--0--2-3--0--2--0-2-3-0--2--0-----------0--2--0---------|
D---0--1--2-------0--1--2-----0--1--2-----------0--1--2---------|
A---2--2--2-------2--2--2-----2--2--2-----------2--2--2---------|
E---3--0--0-------3--0--0-----3--0--0-----------3--0--0---------|

palm mute the next part a couple times

E---------------------------------------------------------------|
B---------------------------------------------------------------|
G------------------9-9--9-5-5-----------------------------------|
D---5-5---5-9-9--9-9-9--9-5-5-----------------------------------|
A---5-5---5-9-9--9-7-7--7-3-3-----------------------------------|
E---3-3---3-7-7--7----------------------------------------------|


play this till end

E---3--0--0--|
B---0--0--0--|
G---0--2--0--|
D---0--1--2--|
A---2--2--2--|
E---3--0--0--|
Добавлено: 16.03.2012
Другие материалы по этой песне:
  • Аккорды и текст

Страница создана 16.03.2012
http://primanota.ru/kevin-devine/carnival-chords.htm
Привет, Гость.
Предлагаем пройти революционный курс по гитаре.
Подарок от PrimaNota.Ru, забирай!