PrimaNota.ru - самый крупный в мире бесплатный архив песенных текстов, аккордов, табулатур и нот


Kevin Coyne - Flashing Back - аккорды и текст, таба, видео

Регистрация Запомнить меня
Войти через:  Facebook Google Twitter Vk Yandex Mail.ru

Kevin Coyne - Flashing Back - аккорды и текст, таба, видео

Печатать
Просмотров: 101
Flashing Back
Kevin Coyne
Flashing Back (Kevin Coyne/Pete Kirtley - 1982)

Tabbed by seboddos aka zappy the koala

E |------0--2---2--2-3-2-0--|
B |---------3---3-----------|
G |---------2---2-----------|
D |--0------0---0-----------|
A |-------------------------|
E |-------------------------|

F#m     x x  4  2  2  2        G   x  x  5  4  3  3		Em7  x  x  9  7  8  7		
F#m7   x x 11 9 10 9


E |---9---5---2---------------------------------------------------------|
B |---------------------------------------------------------------------|
G |---------------------------------------------------------------------|
D |---------------------------------------------------------------------|
A |---------------------------------------------------------------------|
E |---------------------------------------------------------------------|

Verse1
D          F#m G         F#m
Flashing back through the endless photographs
G               F#m            Em        A   Bm      G
Such faces and such memories, 	Can't it be, can it be
Em7  F#m7  Bm	         Em7  F#m7  Bm
I'm just dreaming	I'm lust leaving,
D
Leaving the ground again

Verse 2
D        F#m    G                 F#m
Flashing back, I'm supposed to be so realistic,
G            F#m   Em            A        Bm   G
So objective,      so realistic          It's just a trick
Em7     F#m7        Bm	         Em7   F#m7  Bm
A      trick of the light 	On      my    eyes
Em7  F#m7        Bm      D
I    prefer the lies, 	I prefer the air

Bridge

E |----------------------------------------------------------------|
B |----------------------------------------------------------------|
G |--------0--2----------------------------------------------------|
D |--0--4----------------------------------------------------------|
A |----------------------------------------------------------------|
E |----------------------------------------------------------------|

   C           Em               F
Don't call me a fool (you're a fool) Don't call me a fool (you're a fool)
G          F                C                    F
Take your banners away from my eyes, Take away your dogma and take away your lies
Em
Don't call me a fool (youre a fool), such a fool

Verse 4
Flashing back, 	There were better times at last, it seems
I'm liaising with my dreams	Closer to 	The one I am
The floating, the floating litlle man 	Flashing back

Chorus
Don't call me a fool, don't call (you're a fool), don't call me a fool (you're a fool) 
call me a fool (you're a fool) Take her away (you're a fool) your prayer books and your strain
The things you did again and again When I was so young

Verse 5
But now I know I prefer to flash back 	Sleeping on the way I do 	Maybe that's the only truth
Flashing back with you (you're a dreamer, you're a fool, you're a fool, you're a fool)
Добавлено: 17.12.2013
Другие материалы по этой песне:
  • Аккорды и текст

Страница создана 11.07.2012
http://primanota.ru/kevin-coyne/flashing-back-chords.htm
Привет, Гость.
Предлагаем пройти революционный курс по гитаре.
Подарок от PrimaNota.Ru, забирай!