PrimaNota.ru - самый крупный в мире бесплатный архив песенных текстов, аккордов, табулатур и нот


Kevin and the Octaves - This Is Something - таба, видео

Регистрация Запомнить меня
Войти через:  Facebook Google Twitter Vk Yandex Mail.ru

Kevin and the Octaves - This Is Something - таба, видео

Печатать
Просмотров: 57
-------------------------------------------------------------------------------
                             This is Something - Kevin and the Octaves
-------------------------------------------------------------------------------
Tabbed by: billyrancho
E-mail: royale@nonesuch.thesp

Tuning: regular old EADGBE

      G               D               A
e|----3(15)-----------2(14)-----------0---------------|  
B|----3--3(15)--------3--3(15)--------2---------------|  
G|----4-----4(16)-----2-----2(14)-----2---------------|  
D|----5--------5(17)--0--------4(16)--2(14)-----------| 
A|----5---------------0---------------0---------------|  
E|----3-------------------------------0---------------|  

      G           D           A               Bm A  G
e|0-2-3-----------2---------------------------2--0----|
B|----3--3--------3--3------------------------3--2--0-|
G|----4-----4-----2-----2-----2---------------------4-|
D|----5--------5--0--------4--2---------------------5-|
A|----5-----------0-----------0-----------------------|
E|----3-----------------------0-----------------------|

G             D              A                       Bm   Bm/E Asus4 A  G ((just play A and then G if you want)
       And you say, "We need a doctor,      and it's something deep inside."
           
G             D              A               Bm  A  G     
    It cant wait for  any other.

G             D              A                          Bm   Bm/E Asus4 A  G
      And you say, "It's somethin' serious.   It could mean more than my life."

G             D              A
dont wait too long its not alright  (whistle)
         
G             D              A
dont wait too long its not alright

      G               D               A
e|----3(15)-----------2(14)-----------0---------------|  just the lead guitar here
B|----3--3(15)--------3--3(15)--------2---------------|  
G|----4-----4(16)-----2-----2(14)-----2---------------|  
D|----5--------5(17)--0--------4(16)--2(14)-----------| 
A|----5---------------0---------------0---------------|  
E|----3-------------------------------0---------------| 

A
ooooh this is something

      G               D               A
e|----3(15)-----------2(14)-----------0---------------|  lead and backing
B|----3--3(15)--------3--3(15)--------2---------------|  
G|----4-----4(16)-----2-----2(14)-----2---------------|  
D|----5--------5(17)--0--------4(16)--2(14)-----------| 
A|----5---------------0---------------0---------------|  
E|----3-------------------------------0---------------| 

A
that only you could know

      G               D               A
e|----3(15)-----------2(14)-----------0---------------|  lead and backing
B|----3--3(15)--------3--3(15)--------2---------------|  
G|----4-----4(16)-----2-----2(14)-----2---------------|  
D|----5--------5(17)--0--------4(16)--2(14)-----------| 
A|----5---------------0---------------0---------------|  
E|----3-------------------------------0---------------| 

                   oh oh this is something

          G                           D               A
e|----3(15)-----------2(14)-----------0---------------|  lead and backing
B|----3--3(15)--------3--3(15)--------2---------------|  
G|----4-----4(16)-----2-----2(14)-----2---------------|  
D|----5--------5(17)--0--------4(16)--2(14)-----------| 
A|----5---------------0---------------0---------------|  
E|----3-------------------------------0---------------| 

                      that only you could know
                                   
                                   
G             D              A         Bm   Bm/E Asus4  A    G  (or just A, G)                     
    and you say, you wanted someone to help us through hard times                                  

G             D              A               Bm  A  G     
         and live inside our minds                                 
                                   
G             D              A                Bm   Bm/E Asus4 A  G                                 
      and we fight the same disieases    and comit the same old crimes

G             D              A
dont wait too long its not alright  (whistle)
         
G             D              A
dont wait too long its not alright

      G           D           A
e|----3(15)-----------2(14)-----------0---------------|  just the lead guitar here
B|----3--3(15)--------3--3(15)--------2---------------|  
G|----4-----4(16)-----2-----2(14)-----2---------------|  
D|----5--------5(17)--0--------4(16)--2(14)-----------| 
A|----5---------------0---------------0---------------|  
E|----3-------------------------------0---------------| 

A
ooooh this is somehting

      G               D               A
e|----3(15)-----------2(14)-----------0---------------|  lead and backing
B|----3--3(15)--------3--3(15)--------2---------------|  
G|----4-----4(16)-----2-----2(14)-----2---------------|  
D|----5--------5(17)--0--------4(16)--2(14)-----------| 
A|----5---------------0---------------0---------------|  
E|----3-------------------------------0---------------| 

A
that only you could know

      G               D               A
e|----3(15)-----------2(14)-----------0---------------|  lead and backing
B|----3--3(15)--------3--3(15)--------2---------------|  
G|----4-----4(16)-----2-----2(14)-----2---------------|  
D|----5--------5(17)--0--------4(16)--2(14)-----------| 
A|----5---------------0---------------0---------------|  
E|----3-------------------------------0---------------| 

                   oh oh this is something

      G               D               A
e|----3(15)-----------2(14)-----------0---------------|  lead and backing
B|----3--3(15)--------3--3(15)--------2---------------|  
G|----4-----4(16)-----2-----2(14)-----2---------------|  
D|----5--------5(17)--0--------4(16)--2(14)-----------| 
A|----5---------------0---------------0---------------|  
E|----3-------------------------------0---------------| 

                      that only you could know
                                   
G       Bm 
G       Bm
G       Bm


A                           G (This is the G below)     
e|--0--------0--------2-0------------------------------|
B|-----2--------0---------3-3--------------------------|
G|--------2--------2--------0--------------------------|
D|--------------------------0--------------------------|
A|--------------------------2--------------------------|
E|--------------------------3--------------------------|

G       Bm
      and I used to

          G       Bm
      and I used to know what love was 

          G       Bm
like              until I 


A                                                   G
e|--0--------0--------0-----0--------0--------2-0---3--|
B|-----2--------2--------2-----2--------2---------3-0--|
G|--------2--------2--------------2--------2--------0--|
D|--------------------------------------------------2--|
A|--------------------------2-----------------------3--|
E|--------------------------3--------------------------|
met you                     until I met you oohhhhhhhhh

      G               D               A
e|----3(15)-----------2(14)-----------0---------------|  lead and backing
B|----3--3(15)--------3--3(15)--------2---------------|  
G|----4-----4(16)-----2-----2(14)-----2---------------|  
D|----5--------5(17)--0--------4(16)--2(14)-----------| 
A|----5---------------0---------------0---------------|  
E|----3-------------------------------0---------------| 

oooooooooooooooooooooooooooooooooooooooooooooooooooh


A
ooooh this is something

      G               D               A
e|----3(15)-----------2(14)-----------0---------------|  lead and backing
B|----3--3(15)--------3--3(15)--------2---------------|  
G|----4-----4(16)-----2-----2(14)-----2---------------|  
D|----5--------5(17)--0--------4(16)--2(14)-----------| 
A|----5---------------0---------------0---------------|  
E|----3-------------------------------0---------------| 

A
that only you could know

      G               D               A
e|----3(15)-----------2(14)-----------0---------------|  lead and backing
B|----3--3(15)--------3--3(15)--------2---------------|  
G|----4-----4(16)-----2-----2(14)-----2---------------|  
D|----5--------5(17)--0--------4(16)--2(14)-----------| 
A|----5---------------0---------------0---------------|  
E|----3-------------------------------0---------------| 

                   oh oh this is something

      G               D               A
e|----3(15)-----------2(14)-----------0---------------|  lead and backing
B|----3--3(15)--------3--3(15)--------2---------------|  
G|----4-----4(16)-----2-----2(14)-----2---------------|  
D|----5--------5(17)--0--------4(16)--2(14)-----------| 
A|----5---------------0---------------0---------------|  
E|----3-------------------------------0---------------| 

                      that only you could know

                                          
                                          et cetera
Добавлено: 28.03.2016
Другие материалы по этой песне:
  • Аккорды и текст

Страница создана 28.03.2016
http://primanota.ru/kevin-and-octaves/this-is-something-chords.htm
Привет, Гость.
Предлагаем пройти революционный курс по гитаре.
Подарок от PrimaNota.Ru, забирай!