PrimaNota.ru - самый крупный в мире бесплатный архив песенных текстов, аккордов, табулатур и нот


Kevin Abstract - Not On Doasm 03 - таба, видео

Регистрация Запомнить меня
Войти через:  Facebook Google Twitter Vk Yandex Mail.ru

Kevin Abstract - Not On Doasm 03 - таба, видео

Печатать
Просмотров: 62
Уроки эстрадного вокала в Санкт-Петербурге
-------------------------------------------------------------------------------
                             
Abstract - not on doasm 03
-------------------------------------------------------------------------------
Tabbed by: Albert Gordon

Tuning:EADGBe

GUITAR 1

e|---------------------------------|
B|----5---5---5---5---5---5---5---5|
G|--7---7---7---7---7---7---7---7--|
D|---5---5---5---5---5---5---5---5-|
A|-7---7---7---7---7---7---7---7---|
E|---------------------------------|

e|---------------------------------|
B|---------------------------------|
G|----7---7---7---7---7---7---7---7|
D|--9---9---9---9---9---9---9---9--|
A|---7---7---7---7---7---7---7---7-|
E|-8---8---8---8---8---8---8---8---|

GUITAR 2 

e|--10/12-12-\-7-------------------|
B|-8----------8-----8h10p8-8-------|
G|9----------9------7------9-------|
D|---------------------------------|
A|---------------------------------|
E|---------------------------------|

e|-------------------------7-------|
B|--7p5--------------8----8--------|
G|--7-----7/9-8/11---7---7---------|
D|---------------------------------|
A|---------------------------------|
E|---------------------------------|




The solo after the break is an 
Improvised solo that I probably 
Won't transcribe. 


************************************

| /   slide up
| \   slide down
| h   hammer-on
| p   pull-off
| ~   vibrato
| +   harmonic
| x   Mute note
| b   Bend
| pb  Pre-bend
| br  Bend release
| pbr Pre-bend release
| brb Bend release bend

************************************
Добавлено: 25.06.2016
Другие материалы по этой песне:
  • Аккорды и текст

Страница создана 25.06.2016
http://primanota.ru/kevin-abstract/not-on-doasm-03-chords.htm
Привет, Гость.
Предлагаем пройти революционный курс по гитаре.
Подарок от PrimaNota.Ru, забирай!