PrimaNota.ru - самый крупный в мире бесплатный архив песенных текстов, аккордов, табулатур и нот


Kettcar - Landungsbruecken Raus - аккорды и текст, таба, видео

Регистрация Запомнить меня
Войти через:  Facebook Google Twitter Vk Yandex Mail.ru

Kettcar - Landungsbruecken Raus - аккорды и текст, таба, видео

Печатать
Просмотров: 144
Уроки эстрадного вокала в Санкт-Петербурге
Landungsbruecken Raus
Kettcar
Landungsbrücken raus – Kettcar

Chords:
G:320033  Cadd9=C:24033  Em7=Em:022033  A7Sus4=A:X02233  Bm7:224232  Gspez:X-10-9-0-8-10
Verseplay:
   G                 D                 C                 D
B:-3-3-3-3-3-3-3-3-|-3-3-3-3-3-3-3-3-|-3-3-3-3-3-3-3-3-|-3-3-3-3-3-3-3-3-|
G:-0-0-0-3-3-0-0-0-|-2-2-2-0-0-0-0-0-|-2-2-2-2-2-0-0-0-|-2-2-2-4-4-2-2-0-|
D:-0-0-0-0-0-0-0-0-|-0-0-0-0-0-4-4-4-|-2-2-2-2-2-2-2-2-|-0-0-0-0-0-0-0-0-|
A:-2-2-2-2-2-2-2-2-|-----------------|-3-3-3-3-3-3-3-3-|-----------------|
E:-3-3-3-3-3-3-3-3-|-----------------|-----------------|-----------------|

   E                 A                 C
B:-3-3-3-3-3-3-3-3-|-3-3-3-3-3-3-3-3-|-3-3-3-3-3-3-3-3-|-3-3-3-3-3-3-3-3-|
G:-0-0-0-0-0-0-0-0-|-2-2-2-2-2-4-4-2-|-0-0-0-0-0-0-0-0-|-0-0-0-0-0-0-0-0-|
D:-2-2-2-2-2-4-2-0-|-2-2-2-2-2-2-2-2-|-2-2-2-2-2-4-4-4-|-4-2-2-2-2-0-0-0-|
A:-2-2-2-2-2-2-2-2-|-0-0-0-0-0-0-0-0-|-3-3-3-3-3-3-3-3-|-3-3-3-3-3-3-3-3-|
E:-----------------|-----------------|-----------------|-----------------|


Intro 2x:
   G                                   C
B:-3-3-3-3-3-3-3-3-|-3-3-3-3-3-3-3-3-|-3-3-3-3-3-3-3-3-|-3-3-3-3-3-3-3-3-|
G:-0-0-2-2-4-4-0-0-|-0-0-0-0-0-0-0-0-|-0-0-2-2-4-4-0-0-|-0-0-0-0-0-0-0-0-|
D:-0-0-0-0-0-0-0-0-|-2-2-2-4-4-0-0-0-|-2-2-2-2-2-2-2-2-|-2-2-2-4-4-2-0-0-|
A:-2-2-2-2-2-2-2-2-|-2-2-2-2-2-2-2-2-|-3-3-3-3-3-3-3-3-|-3-3-3-3-3-3-3-3-|
E:-3-3-3-3-3-3-3-3-|-3-3-3-3-3-3-3-3-|-----------------|-----------------|

   E                 D                 C
B:-3-3-3-3-3-3-3-3-|-3-3-3-3-3-3-3-3-|-3-3-3-3-3-3-3-3-|-3-3-3-3-3-3-3-3-|
G:-0-0-0-2-2-0-0-0-|-2-2-2-4-4-2-2-0-|-0-0-0-0-0-0-0-0-|-0-0-0-0-0-0-0-0-|
D:-2-2-2-2-2-2-2-2-|-0-0-0-0-0-0-0-0-|-2-2-2-2-2-4-4-4-|-4-2-2-2-2-0-0-0-|
A:-2-2-2-2-2-2-2-2-|-----------------|-3-3-3-3-3-3-3-3-|-3-3-3-3-3-3-3-3-|
E:-----------------|-----------------|-----------------|-----------------|

Verse 1&2:
G                                   D
Wollt ich leben und sterben wie ein Toastbrot im Regen?
          C                 D
Wie ein betrunkener Hund im Zorn ohne Grund?
      Em                A
Die Erinnerungssplitter liegen herum,
         C
Ich tret' rein.

Und verblutend am Elbstrand, die Getränke sind alle
Noch ein letztes mal winken auf dem Weg aus der Leichenhalle.
Immer zu viel oder zu wenig in mir.

Bridge:
G             Bm7                    Em
Als man ankam wollte man werden, die Geschichte schreiben,
    D                          C            A                       C
Die Doofen sollen sterben, der Plan als man damals nach Hamburg kam.

Chorus:
G C D G C A C Em Bm7 C Am C D
G        C       D            G       C       A        C    Em Bm7
  An den Landungsbrücken raus, dieses Bild verdient Applaus
         C   Am        C              D          C
Und noch 200 Meter und jetzt geht der Fallschirm auf.
D              Em         C            D            Em       C    Bm7 
Jetzt geht der Fallschirm auf, na dann herzlich willkommen Zuhaus
        G                      C
Und ein letztes mal winken und ich bin raus.


Interlude (Verse-Akkorde)


Bridge:
Aufstehen, atmen, anziehen und hingehen.
Zurückkommen, essen und einsehen zum Schluss:
Dass man weiter machen muss.


Chorus
C                       Gspez                      Break
Löschen und spul zurück, löschen und spul zurück.


Last Chorus:
C    D         Em           C
  2002 the year schwachsinn broke. 
              D        Em       C
Jenseits von cool und raus aus Selbstmitleid
      D         Em
Will Sätze die sagen:
     C    D Em C Bm7 G C 
Das war's

Добавлено: 18.06.2012
Другие материалы по этой песне:
  • Аккорды и текст

Страница создана 18.06.2012
http://primanota.ru/kettcar/landungsbruecken-raus-chords.htm
Привет, Гость.
Предлагаем пройти революционный курс по гитаре.
Подарок от PrimaNota.Ru, забирай!