PrimaNota.ru - самый крупный в мире бесплатный архив песенных текстов, аккордов, табулатур и нот


Kertas - Kekasih Yang Tidak Dianggap - таба, видео

Регистрация Запомнить меня
Войти через:  Facebook Google Twitter Vk Yandex Mail.ru

Kertas - Kekasih Yang Tidak Dianggap - таба, видео

Печатать
Просмотров: 83
Уроки эстрадного вокала в Санкт-Петербурге
          Kertas - Kekasih Yang Tak Di Anggap                            
                                                                        


[w/ INTRO]
                     ^  v     v  ^  v     v     ^  v     v  ^  v     v   
                     E  E  E  E  E  E  E  E     E  E  E  E  E  E  E  E   
E||-------|-------|--2--2--x-----2--2--x-----|--2--2--x-----2--2--x-----|
B||-------|-------|--3--3--x--3--3--3--x--3--|--3--3--x--3--3--3--x--3--|
G||-------|-------|--4--4--x--4--4--4--x--4--|--4--4--x--4--4--4--x--4--|
D||-------|-------|--------------------------|--------------------------|
A||-------|-------|--------------------------|--------------------------|
E||-------|-------|--------------------------|--------------------------|


  ^  v     v  ^  v     v     ^  v     v  ^  v     v   
  E  E  E  E  E  E  E  E     E  E  E  E  E  E  E  E   
--0--0--x-----0--0--x-----|--0--0--x-----0--0--x-----|
--0--0--x--0--0--0--x--0--|--0--0--x--0--0--0--x--0--|
--0--0--x--0--0--0--x--0--|--0--0--x--0--0--0--x--0--|
--------------------------|--------------------------|
--------------------------|--------------------------|
--------------------------|--------------------------|


  ^  v     v  ^  v     v     ^  v     v  ^  v     v   
  E  E  E  E  E  E  E  E     E  E  E  E  E  E  E  E   
--0--0--x-----0--0--x-----|--0--0--x-----0--0--x-----|
--2--2--x--2--2--2--x--2--|--2--2--x--2--2--2--x--2--|
--2--2--x--2--2--2--x--2--|--2--2--x--2--2--2--x--2--|
--------------------------|--------------------------|
--------------------------|--------------------------|
--------------------------|--------------------------|


  ^  v     v  ^  v     v        ^     ^     ^     ^     ^                 
  E  E  E  E  E  E  E  E     E  E  E  E  E  E  E  E     W                 
--2--2--x-----2--2--x-----|-----6-----6-----6-----6--|--6----------------|
--3--3--x--3--3--3--x--3--|--7--7--x--7--7--7--x--7--|--7----------------|
--2--2--x--2--2--2--x--2--|--6--6--x--6--6--6--x--6--|--6----------------|
--------------------------|--------------------------|-------------------|
--------------------------|--------------------------|-------------------|
--------------------------|--------------------------|-------------------|


  ^  v     v  ^  v     v     ^  v     v  ^  v     v   
  E  E  E  E  E  E  E  E     E  E  E  E  E  E  E  E   
--2--2--x-----2--2--x-----|--2--2--x-----2--2--x-----|
--3--3--x--3--3--3--x--3--|--3--3--x--3--3--3--x--3--|
--4--4--x--4--4--4--x--4--|--4--4--x--4--4--4--x--4--|
--------------------------|--------------------------|
--------------------------|--------------------------|
--------------------------|--------------------------|
Aku mentari

  ^  v     v  ^  v     v     ^  v     v  ^  v     v   
  E  E  E  E  E  E  E  E     E  E  E  E  E  E  E  E   
--0--0--x-----0--0--x-----|--0--0--x-----0--0--x-----|
--0--0--x--0--0--0--x--0--|--0--0--x--0--0--0--x--0--|
--0--0--x--0--0--0--x--0--|--0--0--x--0--0--0--x--0--|
--------------------------|--------------------------|
--------------------------|--------------------------|
--------------------------|--------------------------|
tapi tak menghangatkanmu


  ^  v     v  ^  v     v     ^  v     v  ^  v     v   
  E  E  E  E  E  E  E  E     E  E  E  E  E  E  E  E   
--0--0--x-----0--0--x-----|--0--0--x-----0--0--x-----|
--2--2--x--2--2--2--x--2--|--2--2--x--2--2--2--x--2--|
--2--2--x--2--2--2--x--2--|--2--2--x--2--2--2--x--2--|
--------------------------|--------------------------|
--------------------------|--------------------------|
--------------------------|--------------------------|
Aku pelangi


  ^  v     v  ^  v     v        ^     ^     ^     ^     ^                 
  E  E  E  E  E  E  E  E     E  E  E  E  E  E  E  E     W                 
--2--2--x-----2--2--x-----|-----6-----6-----6-----6--|--6----------------|
--3--3--x--3--3--3--x--3--|--7--7--x--7--7--7--x--7--|--7----------------|
--2--2--x--2--2--2--x--2--|--6--6--x--6--6--6--x--6--|--6----------------|
--------------------------|--------------------------|-------------------|
--------------------------|--------------------------|-------------------|
--------------------------|--------------------------|-------------------|
tak memberi warna di hidupmu


  ^  v     v  ^  v     v     ^  v     v  ^  v     v   
  E  E  E  E  E  E  E  E     E  E  E  E  E  E  E  E   
--2--2--x-----2--2--x-----|--2--2--x-----2--2--x-----|
--3--3--x--3--3--3--x--3--|--3--3--x--3--3--3--x--3--|
--4--4--x--4--4--4--x--4--|--4--4--x--4--4--4--x--4--|
--------------------------|--------------------------|
--------------------------|--------------------------|
--------------------------|--------------------------|
Aku sang bulan


  ^  v     v  ^  v     v     ^  v     v  ^  v     v   
  E  E  E  E  E  E  E  E     E  E  E  E  E  E  E  E   
--0--0--x-----0--0--x-----|--0--0--x-----0--0--x-----|
--0--0--x--0--0--0--x--0--|--0--0--x--0--0--0--x--0--|
--0--0--x--0--0--0--x--0--|--0--0--x--0--0--0--x--0--|
--------------------------|--------------------------|
--------------------------|--------------------------|
--------------------------|--------------------------|
tak menerangi malammu


  ^  v     v  ^  v     v     ^  v     v  ^  v     v   
  E  E  E  E  E  E  E  E     E  E  E  E  E  E  E  E   
--0--0--x-----0--0--x-----|--0--0--x-----0--0--x-----|
--2--2--x--2--2--2--x--2--|--2--2--x--2--2--2--x--2--|
--2--2--x--2--2--2--x--2--|--2--2--x--2--2--2--x--2--|
--------------------------|--------------------------|
--------------------------|--------------------------|
--------------------------|--------------------------|
Akulah bintang


  ^  v     v  ^  v     v        ^     ^     ^     ^   
  E  E  E  E  E  E  E  E     E  E  E  E  E  E  E  E   
--2--2--x-----2--2--x-----|-----6-----6-----6-----6--|
--3--3--x--3--3--3--x--3--|--7--7--x--7--7--7--x--7--|
--2--2--x--2--2--2--x--2--|--6--6--x--6--6--6--x--6--|
--------------------------|--------------------------|
--------------------------|--------------------------|
--------------------------|--------------------------|
yg hilang ditelan kegelapan


  ^  v     v  ^  v     v     ^  v     v  ^  v     v   
  E  E  E  E  E  E  E  E     E  E  E  E  E  E  E  E   
--3--3--x-----3--3--x-----|--3--3--x-----3--3--x-----|
--3--3--x--3--3--3--x--3--|--3--3--x--3--3--3--x--3--|
--4--4--x--4--4--4--x--4--|--4--4--x--4--4--4--x--4--|
--------------------------|--------------------------|
--------------------------|--------------------------|
--------------------------|--------------------------|
Selalu itu yg 


  ^  v     v  ^  v     v     ^  v     v  ^  v     v                       
  E  E  E  E  E  E  E  E     E  E  E  E  E  E  E  E     W                 
--------------------------|--0--0--x-----0--0--x-----|--0----------------|
--------------------------|--2--2--x--2--2--2--x--2--|--2----------------|
--1--1--x-----1--1--x-----|--2--2--x--2--2--2--x--2--|--2----------------|
--2--2--x--2--1--1--x--1--|--------------------------|--2----------------|
--2--2--x--2--2--2--x--2--|--------------------------|-------------------|
--------------------------|--------------------------|-------------------|
 yg kau ucapkan              padaku


  E  E  E  E  E  E  E  E     E  E  E  E  E  E  E  E   
--------------------------|--------------------------|
--------------------------|--------------------------|
--------------------------|--------------------------|
--7--7--7--7--7--7--7--7--|--7--7--7--7--7--7--7--7--|
--5--5--5--5--5--5--5--5--|--5--5--5--5--5--5--5--5--|
--------------------------|--------------------------|
Sebagai kekasih yang tak dianggap


  E  E  E  E  E  E  E  E     E  E  E  E  E  E  E  E   
--------------------------|--------------------------|
--------------------------|--------------------------|
--------------------------|--------------------------|
--7--7--7--7--7--7--7--7--|--7--7--7--7--7--7--7--7--|
--4--4--4--4--4--4--4--4--|--4--4--4--4--4--4--4--4--|
--------------------------|--------------------------|
     Aku hanya bisa mencoba 


  ^  v     v  ^  v     v     ^  v     v  ^  v     v   
  E  E  E  E  E  E  E  E     E  E  E  E  E  E  E  E   
--------------------------|--------------------------|
--3--3--x--3--3--3--x--3--|--1--1--x--1--1--1--x--1--|
--4--4--x--4--4--4--x--4--|--2--2--x--2--2--2--x--2--|
--4--4--x-----4--4--x-----|--2--2--x-----2--2--x-----|
--------------------------|--------------------------|
--------------------------|--------------------------|
  mengalah                  Menahan setiap 


  ^  v     v  ^  v     v     PM PM PM PM PM PM PM PM  
  E  E  E  E  E  E  E  E     E  E  E  E  E  E  E  E   
--------------------------|--------------------------|
--3--3--x--3--3--3--x--3--|--------------------------|
--4--4--x--4--4--4--x--4--|--------------------------|
--5--5--x-----5--5--x-----|--------------------------|
--------------------------|--4--4--4--4--4--4--4--4--|
--------------------------|--2--2--2--2--2--2--2--2--|
  amarah


  PM PM PM PM PM PM PM PM    PM PM PM PM PM PM PM PM  
  E  E  E  E  E  E  E  E     E  E  E  E  E  E  E  E   
--------------------------|--------------------------|
--------------------------|--------------------------|
--------------------------|--------------------------|
--------------------------|--------------------------|
--5--5--5--5--5--5--5--5--|--7--7--7--7--7--7--7--7--|
--3--3--3--3--3--3--3--3--|--5--5--5--5--5--5--5--5--|


[SOLO]
           TP                                                  
           H         Q     E   E       E  H        Q     S  S  
-------|---------------------------|--------------------------|
-------|---------------------------|--------------------14-15-|
-------|--16---------L----16---L\--|---L----------------------|
-------|---------------------------|--------------------------|
-------|---------------------------|--------------------------|
-------|---------------------------|--------------------------|


   Q.       Q      E   E   E      Q      E   Q     E  E   Q     
------------------------------|--17~-----L--15----14-----14----|
--17~-------L~-----L--15--14--|--------------------------------|
------------------------------|--------------------------------|
------------------------------|--------------------------------|
------------------------------|--------------------------------|
------------------------------|--------------------------------|


   E.   E.   H          E      E   E   E    H         T  T   T   T  
--14---15-------------------|--------------------------------------|
------------15~---------L\--|---------17b--17~----------15h-17p-15-|
----------------------------|-----14-------------------------------|
----------------------------|--------------------------------------|
----------------------------|--------------------------------------|
----------------------------|--------------------------------------|


   H.            E   Q          H.            Q         H          Q.      E    
----------------------------|-----------------------|--------------------------|
--------------------17b~----|---L-------------L\----|--12~--------12b----------|
--18~-----------------------|-----------------------|----------------------9~--|
----------------------------|-----------------------|--------------------------|
----------------------------|-----------------------|--------------------------|
----------------------------|-----------------------|--------------------------|


  Q.     S S S S S Q.         E  E  E    S S S Q     S S   S  
---------------------------|---------------------------------|
-------------------7b------|--L-----7br--5---5---------------|
--L--------7-9-6-9---------|---------------6---6~------9h-11-|
---------9-----------------|---------------------------------|
---------------------------|---------------------------------|
---------------------------|---------------------------------|


  E  Q     Q        E    E       S   S  Q        Q     E   E   E   
-----------------------------|------------------------------------|
----------12pbr-----L~---L\--|--16pb---16pbr----------------------|
--8--9-----------------------|------------------13----14--16--16--|
-----------------------------|------------------------------------|
-----------------------------|------------------------------------|
-----------------------------|------------------------------------|


   H.             E   E      E   E   E   Q     E   E   E    
-------------------------|---------------------------------|
-------------------------|---------------------------------|
---Lb-------------L--13--|---L--14--16------------13--13h--|
-------------------------|--------------14----16-----------|
-------------------------|---------------------------------|
-------------------------|---------------------------------|


   E   E   S  S  Q.       E   T  T   T   T     E   E   H          E   E   
-------------------------------------------|-----------------------------|
-------------------------------------------|-----------------------------|
---L--14---L\------------------------------|-------------------------13--|
----------------16~-------L---L-14h-16p-14-|--13--14--16~---------L------|
-------------------------------------------|-----------------------------|
-------------------------------------------|-----------------------------|


   E   E   E   Q.      E   E      E   E   S  S  E    Q     Q     
------------------------------|---------------------------------|
--------------------------16--|---L--17--19--L\----/17----19----|
---L--14--16--16~-------------|---------------------------------|
------------------------------|---------------------------------|
------------------------------|---------------------------------|
------------------------------|---------------------------------|


   W                    W                                     
--------------------|--------------------|-------------------|
--22----------------|---L----------------|-------------------|
--------------------|--------------------|-------------------|
--------------------|--------------------|-------------------|
--------------------|--------------------|-------------------|
--------------------|--------------------|-------------------|


[CHORUS]
                          ^  v     v  ^  v     v     ^  v     v  ^  v     v   
                          E  E  E  E  E  E  E  E     E  E  E  E  E  E  E  E   
-------|-------|-------|--4--4--x-----4--4--x-----|--4--4--x-----4--4--x-----|
-------|-------|-------|--5--5--x--5--5--5--x--5--|--5--5--x--5--5--5--x--5--|
-------|-------|-------|--4--4--x--4--4--4--x--4--|--4--4--x--4--4--4--x--4--|
-------|-------|-------|--------------------------|--------------------------|
-------|-------|-------|--------------------------|--------------------------|
-------|-------|-------|--------------------------|--------------------------|
                 Sebagai kekasih yang tak dianggap


  ^  v     v  ^  v     v     ^  v     v  ^  v     v   
  E  E  E  E  E  E  E  E     E  E  E  E  E  E  E  E   
--------------------------|--------------------------|
--7--7--x--7--7--7--x--7--|--7--7--x--7--7--7--x--7--|
--8--8--x--8--8--8--x--8--|--8--8--x--8--8--8--x--8--|
--9--9--x-----9--9--x-----|--9--9--x-----9--9--x-----|
--------------------------|--------------------------|
--------------------------|--------------------------|
Aku hanya bisa mencoba mengalah 


  ^  v     v  ^  v     v     ^  v     v  ^  v     v   
  E  E  E  E  E  E  E  E     E  E  E  E  E  E  E  E   
--------------------------|--------------------------|
--5--5--x--5--5--5--x--5--|--4--4--x--4--4--4--x--4--|
--6--6--x--6--6--6--x--6--|--4--4--x--4--4--4--x--4--|
--6--6--x-----6--6--x-----|--4--4--x-----4--4--x-----|
--------------------------|--------------------------|
--------------------------|--------------------------|
                  Menahan setiap amarah


  ^  v     v  ^  v     v     ^  v     v  ^  v     v   
  E  E  E  E  E  E  E  E     E  E  E  E  E  E  E  E   
--------------------------|--------------------------|
--5--5--x--5--5--5--x--5--|--4--4--x--4--4--4--x--4--|
--6--6--x--6--6--6--x--6--|--4--4--x--4--4--4--x--4--|
--7--7--x-----7--7--x-----|--4--4--x-----4--4--x-----|
--------------------------|--------------------------|
--------------------------|--------------------------|
      amarah


  ^  v     v  ^  v     v     ^  v     v  ^  v     v   
  E  E  E  E  E  E  E  E     E  E  E  E  E  E  E  E   
--4--4--x-----4--4--x-----|--4--4--x-----4--4--x-----|
--5--5--x--5--5--5--x--5--|--5--5--x--5--5--5--x--5--|
--4--4--x--4--4--4--x--4--|--4--4--x--4--4--4--x--4--|
--------------------------|--------------------------|
--------------------------|--------------------------|
--------------------------|--------------------------|
Sebagai kekasih yang tak dianggap


  ^  v     v  ^  v     v     ^  v     v  ^  v     v   
  E  E  E  E  E  E  E  E     E  E  E  E  E  E  E  E   
--------------------------|--------------------------|
--7--7--x--7--7--7--x--7--|--7--7--x--7--7--7--x--7--|
--8--8--x--8--8--8--x--8--|--8--8--x--8--8--8--x--8--|
--9--9--x-----9--9--x-----|--9--9--x-----9--9--x-----|
--------------------------|--------------------------|
--------------------------|--------------------------|
Aku hanya bisa mencoba bersabar


  ^  v     v  ^  v     v     ^  v     v  ^  v     v   
  E  E  E  E  E  E  E  E     E  E  E  E  E  E  E  E   
--------------------------|--------------------------|
--5--5--x--5--5--5--x--5--|--4--4--x--4--4--4--x--4--|
--6--6--x--6--6--6--x--6--|--4--4--x--4--4--4--x--4--|
--6--6--x-----6--6--x-----|--4--4--x-----4--4--x-----|
--------------------------|--------------------------|
--------------------------|--------------------------|
            Ku yakin kau kan berubah


[ENDING]
  ^  v     v  ^  v     v     ^  v     v  ^  v     v   
  E  E  E  E  E  E  E  E     E  E  E  E  E  E  E  E   
--------------------------|--------------------------|
--4--4--x--4--4--4--x--4--|--4--4--x--4--4--4--x--4--|
--5--5--x--5--5--5--x--5--|--5--5--x--5--5--5--x--5--|
--6--6--x-----6--6--x-----|--6--6--x-----6--6--x-----|
--------------------------|--------------------------|
--------------------------|--------------------------|


  ^  v     v  ^  v     v     ^  v     v  ^  v     v   
  E  E  E  E  E  E  E  E     E  E  E  E  E  E  E  E   
--------------------------|--------------------------|
--4--4--x--4--4--4--x--4--|--4--4--x--4--4--4--x--4--|
--5--5--x--5--5--5--x--5--|--5--5--x--5--5--5--x--5--|
--6--6--x-----6--6--x-----|--6--6--x-----6--6--x-----|
--------------------------|--------------------------|
--------------------------|--------------------------|


  ^  v     v  ^  v     v     ^  v     v  ^  v     v   
  E  E  E  E  E  E  E  E     E  E  E  E  E  E  E  E   
--------------------------|--------------------------|
--4--4--x--4--4--4--x--4--|--4--4--x--4--4--4--x--4--|
--5--5--x--5--5--5--x--5--|--5--5--x--5--5--5--x--5--|
--6--6--x-----6--6--x-----|--6--6--x-----6--6--x-----|
--------------------------|--------------------------|
--------------------------|--------------------------|


  ^  v     v  ^  v     v     ^  v     v  ^  v     v   
  E  E  E  E  E  E  E  E     E  E  E  E  E  E  E  E   
--------------------------|--------------------------|
--4--4--x--4--4--4--x--4--|--4--4--x--4--4--4--x--4--|
--5--5--x--5--5--5--x--5--|--5--5--x--5--5--5--x--5--|
--6--6--x-----6--6--x-----|--6--6--x-----6--6--x-----|
--------------------------|--------------------------|
--------------------------|--------------------------|


  ^  v     v  ^  v     v     ^  v     v  ^  v     v                
  E  E  E  E  E  E  E  E     E  E  E  E  E  E  E  E                
--------------------------|--------------------------|-----|-----||
--4--4--x--4--4--4--x--4--|--4--4--x--4--4--4--x--4--|-----|-----||
--5--5--x--5--5--5--x--5--|--5--5--x--5--5--5--x--5--|-----|-----||
--6--6--x-----6--6--x-----|--6--6--x-----6--6--x-----|-----|-----||
--------------------------|--------------------------|-----|-----||
--------------------------|--------------------------|-----|-----||



[INTRO]
             H        E.  E.  E      S   H.            E.   
E||-------|----------------------|-------------------------|
B||-------|----------------------|-------------------------|
G||-------|----------------------|-------------------------|
D||-------|-----------4---5---4--|--11S-12-------------L---|
A||-------|----------------------|-------------------------|
E||-------|----------------------|-------------------------|


  H        E.  E.  E     S   H.            E.     H        E.  E.  E   
----------------------|------------------------|----------------------|
----------------------|------------------------|----------------------|
----------------------|------------------------|----------------------|
-----------4---5---4--|--9S-11-------------L---|-----------4---5---4--|
----------------------|------------------------|----------------------|
----------------------|------------------------|----------------------|


   S   H.            E.     H        E.  E.  E      S   H        E.   Q     
-------------------------|----------------------|--------------------------|
-------------------------|----------------------|--------------------------|
-------------------------|----------------------|--------------------------|
--12S-14-------------L---|-----------4---5---4--|--14S-16------------12----|
-------------------------|----------------------|--------------------------|
-------------------------|----------------------|--------------------------|


   W                                                                         
--------------------|-------|
--------------------|-------|
--------------------|-------|
--11----------------|-------|
--------------------|-------|
--------------------|-------|


Duration Legend
---------------
W - whole
H - half
Q - quarter
E - 8th
S - 16th
T - 32nd
X - 64th
. - note dotted
|-n-|  - n-tuplets


Tablature Legend
----------------
L - tied note
x - dead note
g - grace note
(n) - ghost note
> - accentuded note
NH - natural harmonic
AH - artificial harmonic
TH - tapped harmonic
SH - semi harmonic
PH - pitch harmonic
h - hammer on
p - pull off
b - bend
br - bendRelease
pb - preBend
pbr - preBendRelease
brb - bendReleaseBend
\n/ - tremolo bar dip
\n - tremolo bar dive
-/n - tremolo bar Release up
/n\ - tremolo bar inverted dip
/n - tremolo bar return
-\n - tremolo bar Release down
S - shift slide
s - legato slide
/ -  slide into from below or out of upwards
\ -  slide into from above or out of downwards
~ - vibrato
W - wide vibrato
tr - trill
TP - tremolo picking
T - tapping
S - slap
P - pop
< - fade in
^ - brush up
v - brush down
Добавлено: 15.06.2013
Вам также может быть интересно:
Другие материалы по этой песне:
  • Аккорды и текст

Страница создана 15.06.2013
http://primanota.ru/kertas/kekasih-yang-tidak-dianggap-chords.htm
Привет, Гость.
Предлагаем пройти революционный курс по гитаре.
Подарок от PrimaNota.Ru, забирай!