PrimaNota.ru - самый крупный в мире бесплатный архив песенных текстов, аккордов, табулатур и нот


Kermess - Misanthrope - таба, видео

Регистрация Запомнить меня
Войти через:  Facebook Google Twitter Vk Yandex Mail.ru

Kermess - Misanthrope - таба, видео

Печатать
Просмотров: 68
Song/toune: Misanthrope
Band/groupe: Kermess
Album: bref expose
Tabber: mathieu mg mathieumg_186@hotmail.com

- I don^Òt think this tab is OK but it WILL sound OK if you play it...
- A tablature est surement pas correcte mais ca sonne quand meme bien quand on la joue alors...

Intro/Chorus
|-------------|-------------|----------|----------|
|-------------|-------------|----------|----------|
|-------------|-------------|----------|----------| x2
|---7-7-5-4-5-|---5-5-3-2-3-|----------|----------|
|-5-----------|-3-----------|-5-5-5-5--|-5-5-5-5--|
|-------------|-------------|-5-5-5-6--|-5-5-5-6--|

|----------|----------|
|----------|----------|
|----------|----------|
|----------|----------|
|-5-5-5-5--|-5-5-5-5--|
|-5-5-5-6--|-5-5-5-6--|

Verse
|---------------|----------------|   |-10-8-5---|-10-8-----|
|----3-5-6--3---|----------------|   |--------8-|------8-6-|
|-2-----------2-|----------------|   |----------|----------|
|---------------|-5--2-3-5--3--2-|x2 |----------|----------|x2
|---------------|----------------|   |----------|----------|
|---------------|----------------|   |----------|----------|

Break ( the small bars mean wait 4 times / les petites barres indiquent de faire une pose de 4 temps )             
|---------------------|   |-----|-----|-----|-----|
|---------------------|   |-----|-----|-----|-----| play each block 4x
|---------------------|   |-----|-----|-----|-----| jouer chaque bloc 4x
|---|---|---|---------|x2 |-0-5-|-0-3-|-0-7-|-0-3-|
|-5-|-5-|-3-|-3-8-7-3-|   |-----|-----|-----|-----|
|---|---|---|---------|   |-----|-----|-----|-----|

End
|---------|---------|---|
|---------|---------|---|
|---------|---------|---|
|---------|---------|---|
|-5-5-5-5-|-5-5-5-5-|-5-|
|-5-5-5-6-|-5-5-5-6-|-5-|


     
Добавлено: 30.07.2013
Вам также может быть интересно:
Другие материалы по этой песне:
  • Аккорды и текст

Страница создана 30.07.2013
http://primanota.ru/kermess/misanthrope-chords.htm
Привет, Гость.
Предлагаем пройти революционный курс по гитаре.
Подарок от PrimaNota.Ru, забирай!