PrimaNota.ru - самый крупный в мире бесплатный архив песенных текстов, аккордов, табулатур и нот


Kerber - Na Raskrscu - аккорды и текст, видео

Регистрация Запомнить меня
Войти через:  Facebook Google Twitter Vk Yandex Mail.ru

Kerber - Na Raskrscu - аккорды и текст, видео

Печатать
Просмотров: 74
Na Raskrscu
Kerber
 Em   C     D       Em     C       D     
   Tu smo na raskrscu korak tezi od nebesa... 
e----0----0-----2------0-------0-------2-------0-----|
B---0----1-----3------0-------1-------3------0--0----|
G--0----0-----2------0-------0-------2------0-0--0---|
D------------0----------------------0-------------2--|
A------3--------------------3------------------------|
E-0-----------------0----------------------0---------|




  Sad se kaju majevi snene zore i nemiri 
e----0------1-----0----------0------1------0------|
B---1------0----3--3--------1------0-----3--3-----|
G--2------0----2-2--2------2------0-----2-2--2----|
D-------------0------0-----------------0------0---|
A-0-----------------------0-----------------------|
E--------3-----------------------3----------------|
  pitaju zasto smo  ih uopste i budili
e----0------1-----0-------3-------0---------------|
B---1------0----3--3-----3-------3----------------|
G--2------0----2-2--2---0-------2-----------------|
D-------------0------0---------0-------2-2-2-2-2-2|
A-0--------------------3---------------2-2-2-2-2-2|
E--------3---------------------------0------------|






Em C      D 
Tu smo na raskrscu
korak tezi od nebesa
k'o slepi putnici
koje niko i ne ceka


Am     G    Dsus2
Sad se kaju majevi
snene zore i nemiri
pitaju zasto smo ih
uopste i budili


Ref. 2x
Am G    D
Ne mogu zaspati
      Am      G    D Dsus4 D
u toj kuci od snegova
Am G    D    Dsus2
ni vise ljubiti
      C/G      D   Em 
tvoje usne od  pelina


Kad kisa prestane
tudji san ces obaviti
na mojim zenama
neka druga ce postati
Добавлено: 05.10.2015
Вам также может быть интересно:
Другие материалы по этой песне:
  • Аккорды и текст

Страница создана 05.10.2015
http://primanota.ru/kerber/na-raskrscu-chords.htm
Привет, Гость.
Предлагаем пройти революционный курс по гитаре.
Подарок от PrimaNota.Ru, забирай!