PrimaNota.ru - самый крупный в мире бесплатный архив песенных текстов, аккордов, табулатур и нот


Kerber - Mezimac - таба, видео

Регистрация Запомнить меня
Войти через:  Facebook Google Twitter Vk Yandex Mail.ru

Kerber - Mezimac - таба, видео

Печатать
Просмотров: 90
-------------------------------------------------------------------------------
    KERBER-Mezimac 1983
-------------------------------------------------------------------------------
Tabbed by:
E-mail:

Tuning:E standard


                             Lightly P.M.---------------
e|--2------------------------------------------------------------------------|
B|--2------------------------------------------------------------------------|
G|--2--0--2--------------------6-7--9--7-6-7--6-----6------------------------| INTRO+VERSE 1.
D|--2--0--2--------------------------------------9-----7-vv------------------|
A|--0--------0--0--0--0--0---------------------------------------------------| CHORDS+FIGURE
E|---------------------------------------------------------------------------|


                          Lightly P.M.----------------
e|---2-----2-------------------------------------------------------------------|
B|---2-----2-------------------------------------------------------------------| VERSE 2.
G|---2-----2------------------------6------------------------------------------|
D|---4-----4-------------------7-9-----9-7-9--7-6-7----------------------------| CHORDS+FIGURE
A|---4--2--4-----------------------------------------9-vv----------------------|
E|---2--0--2-------------------------------------------------------------------|



e|------------2---------------------------------------------------------------|
B|------------2---------------------------------------------------------------|
G|-----7------2---------------------------------------------------------------| CHORUS CHORDS
D|-----7------4---------------------------------------------------------------|
A|-----5------4---------------------------------------------------------------|
E|------------2---------------------------------------------------------------|



Thats all..! enjoy!

v=vibrato!
P.M.=palm muting 


************************************

| /   slide up
| \   slide down
| h   hammer-on
| p   pull-off
| ~   vibrato
| +   harmonic
| x   Mute note
| b   Bend
| pb  Pre-bend
| br  Bend release
| pbr Pre-bend release
| brb Bend release bend

************************************
Добавлено: 05.10.2015
Другие материалы по этой песне:
  • Аккорды и текст

Страница создана 05.10.2015
http://primanota.ru/kerber/mezimac-chords.htm
Привет, Гость.
Предлагаем пройти революционный курс по гитаре.
Подарок от PrimaNota.Ru, забирай!