PrimaNota.ru - самый крупный в мире бесплатный архив песенных текстов, аккордов, табулатур и нот


Kephas - Rumba Song - таба, видео

Регистрация Запомнить меня
Войти через:  Facebook Google Twitter Vk Yandex Mail.ru

Kephas - Rumba Song - таба, видео

Печатать
Просмотров: 49
-------------------------------------------------------------------------------------
                                  Rumba Song - Kephas
-------------------------------------------------------------------------------------

Tabbed by Gagliostro

A song I found on youtube. Named "Kephas rumba song". So I used this composer and title.
But obviously nobody really knows neither the composer nor the title (have a look at the comments)
And I wasn't able to relate it too.
Maybe someone of you knows.... 

Nevertheless I tried to sound it out as good as I was able to.
Maybe somebodey has fun to play it....


usual tuning E/A/D/G/H/e
v - vibrato
s - slide (up/down)
b - bend up
r - rebend (down)
h - hammer on
p - pull off



00:050
e|--------------------|--------------------|--------------------|--7.....------------|
B|--------------------|--------------------|--8.....------------|--------------------|
G|--------------------|----------9.....----|--------------------|--------------9-11--|
D|----------10.....---|--9.....------------|--------------------|------------9-------|
A|--7.....------------|--------------------|--------------------|--------------------|
E|--------------------|--------------------|--------------------|--------------------|

00:15
e|-----------------------|-----------------|-----------------------|-----------------|
B|--8v---8s10(s8)-8------|-----------------|-----------------8-----|-----------------|
G|------------------11v--|--9s11-11-9-7-9--|--9s11---9s11-11---9v--|-----------9-11--|
D|-----9-----------------|-----------------|-------9---------------|---------9-------|
A|-----------------------|-----------------|-----------------------|-----------------|
E|-----------------------|-----------------|-----------------------|-----------------|

00:25
e|-------------------|-------------------------|---------------------|---------------|
B|--8v-8-8s10(s8)-8--|-------------------------|---------------------|---------------|
G|-------------------|--11s(7)-----------------|---------------------|---------9-11--|
D|-------------------|---------9-7-7s9-7-------|---------------------|-------9-------|
A|-------------------|-------------------10-9--|--7s9s7----7---------|--7------------|
E|-------------------|-------------------------|--------10---10--10--|---------------|

00:34
e|-----------------------|-----------------|-----------------------|-----------------|
B|--8v---8s10(s8)-8------|-----------------|-----------------8-----|-----------------|
G|------------------11v--|--9s11-11-9-7-9--|--9s11---9s11-11---9v--|-----------9-11--|
D|-----9-----------------|-----------------|-------9---------------|---------9-------|
A|-----------------------|-----------------|-----------------------|-----------------|
E|-----------------------|-----------------|-----------------------|-----------------|

00:44
e|-------------------|-----------------------------|----------------|----------------|
B|--8v-8-8s10(s8)-8--|-----------------------------|----------------|----------------|
G|-------------------|--11s(7)---------------------|-------------7--|--7s9v----------|
D|-------------------|---------9-7s9-7-7s9-7----7--|--7s9-9-9-10----|----------------|
A|-------------------|-----------------------10----|----------------|----------------|
E|-------------------|-----------------------------|----------------|----------------|

00:53
e|-------------------------8s10--|---------------s7-----|----------------|-----------|
B|--8s10--10--10--8--8s10--------|--8s10v--8--10----10--|--8p7--------7--|-----------|
G|-------------------------------|----------------------|------7--7h9----|--9v-------|
D|-------------------------------|----------------------|----------------|-----------|
A|-------------------------------|----------------------|----------------|-----------|
E|-------------------------------|----------------------|----------------|-----------|

01:03
e|------------------------7-8--|--7h8p7-----------------|--------------------|-------|
B|--8s10--10--10--8--8s10------|--------10-8-8-7h8p7----|--------------------|-------|
G|-----------------------------|---------------------9--|--9s11-9-9-7h9p7----|-------|
D|-----------------------------|------------------------|-----------------10-|--9v---|
A|-----------------------------|------------------------|--------------------|-------|
E|-----------------------------|------------------------|--------------------|-------|

01:13
e|--------------------8s10b12r10-7-8-10-12-14-15-|-15s17-15-14-12--------------------|
B|--8s10-10-10-8-8s10-------|--------------------|----------------15p13-12-10h12p10--|
G|--------------------------|--------------------|-----------------------------------|
D|--------------------------|--------------------|-----------------------------------|
A|--------------------------|--------------------|-----------------------------------|
E|--------------------------|--------------------|-----------------------------------|

01:20
e|-------|--------------7-8-10-8-|-7------------|------------------------|-----------|
B|-------|-8s10-10-8-10----------|---7-8s10-8-7-|------------------------|-----------|
G|--12v--|-----------------------|--------------|-9...h11p9h11p9...11-9--|-----9-11--|
D|-------|-----------------------|--------------|------------------------|---9-------|
A|-------|-----------------------|--------------|------------------------|-----------|
E|-------|-----------------------|--------------|------------------------|-----------|

01:32
e|-----------------------|-----------------|-----------------------|-----------------|
B|--8v---8s10(s8)-8------|-----------------|-----------------8-----|-----------------|
G|------------------11v--|--9s11-11-9-7-9--|--9s11---9s11-11---9v--|-----------9-11--|
D|-----9-----------------|-----------------|-------9---------------|---------9-------|
A|-----------------------|-----------------|-----------------------|-----------------|
E|-----------------------|-----------------|-----------------------|-----------------|

01:42
e|------------------|-----------------------|----------------------|-----------------|
B|--8v-8-8s10(s8)-8-|-----------------------|----------------------|-----------------|
G|------------------|-11s(7)----------------|----------------------|-----------9-11--|
D|------------------|--------9-7-7s9-7------|----------------------|---------9-------|
A|------------------|------------------10-9-|-7s9---------7--------|-----------------|
E|------------------|-----------------------|-----10-7-10---10-7-5-|-0---------------|

01:51
e|-----------------------|-----------------|-----------------------|-----------------|
B|--8v---8s10(s8)-8------|-----------------|-----------------8-----|-----------------|
G|------------------11v--|--9s11-11-9-7-9--|--9s11---9s11-11---9v--|-----------9-11--|
D|-----9-----------------|-----------------|-------9---------------|---------9-------|
A|-----------------------|-----------------|-----------------------|-----------------|
E|-----------------------|-----------------|-----------------------|-----------------|

02:01
e|-------------------|-------------------------|-------------------------------|
B|--8v-8-8s10(s8)-8--|-------------------------|-------------------------------|
G|-------------------|--11s(7)-----------------|--------------------4-----4s5--|
D|-------------------|---------9-7s9-7-5-------|--------5-7-7---5-7-----7------|
A|-------------------|--------------------7-7--|--5-7--------------------------|
E|-------------------|-------------------------|-------------------------------|

        e|---------------------------------------(3)s5-----|
        B|-------(3)s5---4-5-5s7---5-7-7s8---7-8-------8v--|
        G|---4h5-------------------------------------------|
        D|-------------------------------------------------|
        A|-------------------------------------------------|
        E|-------------------------------------------------|

02:10
e|------------------------8b10r8--|--------------------|----------------|------------|
B|--8s10--10--10--8--8s10---------|--10-8-10-10s12-10--|--8p7--------7--|------------|
G|--------------------------------|--------------------|------7--7h9----|--9v--------|
D|--------------------------------|--------------------|----------------|------------|
A|--------------------------------|--------------------|----------------|------------|
E|--------------------------------|--------------------|----------------|------------|

02:20
e|--------------------7-8-|-7------------------|------------------------|------------|
B|--8s10--10--10-8-10-----|---10s8-8-8-7h8p7---|------------------------|------------|
G|------------------------|------------------9-|-9s11-9-9h11p9-7h9p7----|------------|
D|------------------------|--------------------|---------------------10-|--9v--------|
A|------------------------|--------------------|------------------------|------------|
E|------------------------|--------------------|------------------------|------------|

02:29
e|-------------------8s10b12r10-7-8-10-12-14-15-14h15p14-12-10-|-12-10-------------------|
B|-8s10-10-10-8-8s10-------|-----------------------------------|-------13-12h13p12-10----|
G|-------------------------|-----------------------------------|----------------------12-|
D|-------------------------|-----------------------------------|-------------------------|
A|-------------------------|-----------------------------------|-------------------------|
E|-------------------------|-----------------------------------|-------------------------|

02:36
e|----------------|------------------7-8--|--7-------------|---------|---------------|
B|----------------|--8s10-10-10-8-10------|----10-8-7------|---------|---------------|
G|--11-9-7---7-9v-|-----------------------|-----------9-7--|--9v...--|----------7h9--|
D|---------9------|-----------------------|----------------|---------|--9,9,9,9------|
A|----------------|-----------------------|----------------|---------|---------------|
E|----------------|-----------------------|----------------|---------|---------------|

02:49
e|--------------------7-8-10-8-10-|-12-12-14-15-14-15p14p12-15p14-15p14p12h15p14p12.-|
B|-8h10-8-10-10-10-10-------------|--------------------------------------------------|
G|--------------------------------|--------------------------------------------------|
D|--------------------------------|--------------------------------------------------|
A|--------------------------------|--------------------------------------------------|
E|--------------------------------|--------------------------------------------------|

02:54
e|--...h15p14p12h15p14p12s7----|--------10-------------------------------------------|
B|--------------------------8--|--10b12----10b12r10p8-7h8p7---7-8-10-10b12r10-8-7----|
G|-----------------------------|----------------------------9---------------------9--|
D|-----------------------------|-----------------------------------------------------|
A|-----------------------------|-----------------------------------------------------|
E|-----------------------------|-----------------------------------------------------|

02:59
e|----------------------------------|--------8-----------------|
B|--------------------------7-8-10--|--10b12...r10-10-8-7---7--|
G|--9b10r9p7---7-9-9b10r9-9---------|---------------------9----|
D|-----------9----------------------|--------------------------|
A|----------------------------------|--------------------------|
E|----------------------------------|--------------------------|

03:03
e|-----------7-8-7h8p7-5-7-5h7p5-3-5--|--3h5p3-2-0---0-----------|
B|--8-7-8-10--------------------------|------------3---0---------|
G|------------------------------------|--------------------------|
D|------------------------------------|--------------------------|
A|------------------------------------|--------------------------|
E|------------------------------------|---------------------7-8--|

03:08
e|-----------------------------------|-----------------------------------------------|
B|-----------------------------------|-----------------------7-8-7---7-8-10-10b12r10-|
G|-----------------------------------|-------------------7-9-------9-----------------|
D|--------------------------7h9h10-9-|-10-9-7----7-9-10------------------------------|
A|---------7----7-9h10p9-10----------|--------10-------------------------------------|
E|-10-8-10---10----------------------|-----------------------------------------------|

03:13
e|------------------------------------|-------------------------------------|
B|--10-8-7---7-8-7h8p7----------------|--------------------------------7-8--|
G|---------9-----------9-7-9-7---7-9b11r9p7---7-9-7---7-9b11r9p7---7-9------|
D|-----------------------------9------|-----9-------9------------9----------|
A|------------------------------------|-------------------------------------|
E|------------------------------------|-------------------------------------|

03:18
e|--7----7-10-12-12-10-12-14-15-|-14-14-14-15-17-15-17-|-19-19-19-19-19-19-19-19-19--|
B|----10------------------------|----------------------|-----------------------------|
G|------------------------------|----------------------|-----------------------------|
D|------------------------------|----------------------|-----------------------------|
A|------------------------------|----------------------|-----------------------------|
E|------------------------------|----------------------|-----------------------------|

03:25
e|--19s17s15s14s12s10s8s7s5s3-0----|--------------------8b10r8--|----------7---------|
B|------------------------------0--|--0s10-10-10-8-8s10---------|--10-8-10---10-8-7--|
G|---------------------------------|----------------------------|--------------------|
D|---------------------------------|----------------------------|--------------------|
A|---------------------------------|----------------------------|--------------------|
E|---------------------------------|----------------------------|--------------------|

03:32
e|----------------|------------------|--------------------7-8--|--7------------------|
B|----------7-----|------------------|--8s10-10-10-8-8s10------|----10-8-8h10p8-7----|
G|--7--7h9-----9--|------------------|-------------------------|------------------9--|
D|----------------|------------------|-------------------------|---------------------|
A|----------------|------------------|-------------------------|---------------------|
E|----------------|------------------|-------------------------|---------------------|

03:42
e|------------------------------|--------------------------------|-------------------|
B|------------------------------|--------------------------------|-------------------|
G|-9b11r9p7---7-9p7---7---------|-----------------4h5p4--4-------|-------------------|
D|----------9-------9---9p7-5-7-|-5-4-------4-5-7----------7-5-4-|------4-5-5s7------|
A|------------------------------|-----7-5-7----------------------|-7--7----------4-7-|
E|------------------------------|--------------------------------|-------------------|

03:49
e|---------------------|----------------------------------------------|
B|---------------------|----------------------------------------------|
G|---------------------|-----------------------2-4-5-4-5-4-2---2-4-5--|
D|---------------------|-----------------2-4-5---------------5--------|
A|--5--7-7s9-9-7-------|-----------2-3-5------------------------------|
E|---------------10-8--|--7s5s3--3------------------------------------|

03:54
e|---------------------------------|------------------------7-8-7.....-----12-14-15--|
B|------3-5-3-5-7-8-7-8-10-8-10-8--|--10-8-10b12b10-10-8-10--------|-----------------|
G|--4-5----------------------------|-------------------------------|-----------------|
D|---------------------------------|-------------------------------|-----------------|
A|---------------------------------|-------------------------------|-----------------|
E|---------------------------------|-------------------------------|-----------------|

04:01
e|--12...............------|
B|-------------------------|
G|-------------------------|
D|-------------------------|
A|-------------------------|
E|-------------------------|
Добавлено: 02.01.2016
Другие материалы по этой песне:
  • Аккорды и текст

Страница создана 02.01.2016
http://primanota.ru/kephas/rumba-song-chords.htm
Привет, Гость.
Предлагаем пройти революционный курс по гитаре.
Подарок от PrimaNota.Ru, забирай!