PrimaNota.ru - самый крупный в мире бесплатный архив песенных текстов, аккордов, табулатур и нот


Keola Beamer - E Kuu Morning Dew - таба, видео

Регистрация Запомнить меня
Войти через:  Facebook Google Twitter Vk Yandex Mail.ru

Keola Beamer - E Kuu Morning Dew - таба, видео

Печатать
Просмотров: 61
Title:   "E Ku'u Morning Dew"
Artist:  Keola Beamer (arrangement based on a melody by Eddie Kamae)
Style:   Hawaiian slack key guitar
>From CD: Keola Beamer - Moe'uhane Kika - "Tales from the Dream Guitar"
         Dancing Cat Records 08022-38006-2
Also on: Hawaiian Slack Key Guitar Masters
         Dancing Cat Records 08022-38032-2
Tabbed by: Bill Flanagan

Here is my take on Keola Beamer's beautiful slack key guitar tune "E =
Ku'u Morning Dew." I learned this from Keola's CD Moe'uhane Kika "Tales =
from the Dream Guitar." The tab includes the main theme and the first =
variation. There's another variation on the recording that I haven't =
gotten to yet, but it should be relatively easy to figure out once you =
learn the first two parts. Play it slow and dreamily. Sounds best on a =
nylon string guitar. I have not indicated timing, so listen to the CD =
and it should make sense. You can simply keep repeating the variations =
until everyone around you is hypnotized.



Tuning (low to high): CGCGAD

D------|------ 7>-------------------5--|-----------5----------(5)--|-
A------|-------------- 7>--------0-----|-----0-----------0---------|-
G------|-- 7>----- 5>------------------|---------------------------|-
C------|----------------------0--------|--------0-----------0------|-
G------|-------------------------------|---------------------------|-
C------|-------------------5-----------|--------------5------------|-


D------|------ 7>----------------------|---------------------------|-
A------|-------------- 7>-----------5--|-----------5----------(5)--|-
G------|-- 7>----- 5>------------0-----|-----0-----------0---------|-
C------|----------------------0--------|--------0-----------0------|-
G------|-------------------------------|---------------------------|-
C------|-------------------0-----------|--------------0------------|-


D------|------ 7>-------------------5--|-----------5-----------5---|-
A------|-------------- 7>--------0-----|-----0-----------0---------|-
G------|-- 7>----- 5>------------------|---------------------------|-
C------|----------------------0--------|--------0-----------0------|-
G------|-------------------------------|---------------------------|-
C------|-------------------5-----------|--------------5------------|-


D------|------------5----------------|---------------------------|-
A------|------0-----------------3----|-----p2--------------------|-
G------|---------------------0-------|---------0--------------0--|-
C------|---------0--------2----------|------------2--------------|-
G------|---------------0-------------|---------------0-----------|-
C------|---5-------------------------|---------------------------|-


D------|-----0--2--3-----------------|---------------------------|-
A------|--2-----------0--------5-----|---------0--3--2--------2--|-
G------|--------------------0--------|------0--------------0-----|-
C------|-----------------0-----------|------------------2--------|-
G------|-----------------------------|---------------0-----------|-
C------|--------------5--------------|---------------------------|-


D------|-----------------------------|------9--------------------|-
A------|----------------------7------|------7--------------------|-
G------|----------2--0-----7---------|------7-----------------0--|-
C------|--2/4--5--------0------------|---0-----------------------|-
G------|-----------------------------|---------------------------|-
C------|-------------0---------------|---------------------------|-


D------|-----0--2--3-----------------|---------------------------|-
A------|--2-----------0--------5-----|--10---10---------10-------|-
G------|--------------------0--------|-------0----------0--------|-
C------|-----------------0-----------|-------11-----11-----------|-
G------|-----------------------------|-------0---0---------------|-
C------|--------------5--------------|---------------------------|-


D------|------------------------------|----------------------------|-
A------|-----8--8--8---7--------7-----|-----------7----------------|-
G------|-----0--0--0---0--------0-----|-----------0-----0----------|-
C------|-----9--9--9---7-----7--------|--------7---------------4---|-
G------|--0---------------0-----------|-----0----------------------|-
C------|---------------0--------------|--0-----------0-----0-------|-


D------|------------------------------|----------------------------|-
A------|------------------------------|-------5------2--------2----|-
G------|-----0-------0--2--0-----2----|--------------------0-------|-
C------|--------4h5-----------0-------|-----------------2----------|-
G------|------------------------------|--------------0-------------|-
C------|--0-------------5-------------|--5-------------------------|-

                                       ____________________________
                                       | 1.
D------|------------------------------|----------------------------|-
A------|--------2-------3--------3----|-----------3----------------|-
G------|------------0------0----------|-----0----------------------|-
C------|----------------------0-------|--------0-------------------|-
G------|--0---------------------------|----------------------------|-
C------|----------------0-------------|--0-----------0-------------|-
                                              Repeat from beginning

        ____________________________
        | 2.
D------|----------------------------|------------------------5---|-
A------|-----------3------5-p3------|--3-\2-----0---------0------|-
G------|-----0------------------0---|--------0-------------------|-
C------|--------0-------------------|------------------0---------|-
G------|----------------------------|----------------------------|-
C------|--0-----------0-------------|---------------5------------|-
                                             =20

D------|-----------5-----------5----|-----------5----------------|-
A------|-----0-----------0----------|--3-h5------------------5---|-
G------|----------------------------|--------0------------0------|-
C------|--------0-----------0-------|------------------0---------|-
G------|----------------------------|----------------------------|-
C------|--------------0-------------|---------------0------------|-


D------|----------------------------|----------------------------|-
A------|-----------5-----7-p5-------|--5-\3-----0------------5---|-
G------|-----0-----------------0----|--------0------------0------|-
C------|--------0-------------------|------------------0---------|-
G------|----------------------------|----------------------------|-
C------|--------------0-------------|---------------5------------|-


D------|-----------------------------|----------------------------|-
A------|--------0--3---2-------------|--------2--3------------3---|-
G------|-----0------------------0----|-----0------------0---------|-
C------|------------------2-/4-------|--5------------------0------|-
G------|---------------0-------------|----------------------------|-
C------|-----------------------------|---------------0------------|-


D------|-----------------------------|-
A------|-----------3-----------------|-
G------|-----0-----------------------|-
C------|--------0--------------------|-
G------|-----------------------------|-
C------|--0------------0-------------|-                         ___
                           Repeat either from beginning or from |2.


     
Добавлено: 23.08.2013
Вам также может быть интересно:
Другие материалы по этой песне:
  • Аккорды и текст

Страница создана 23.08.2013
http://primanota.ru/keola-beamer/e-kuu-morning-dew-chords.htm
Привет, Гость.
Предлагаем пройти революционный курс по гитаре.
Подарок от PrimaNota.Ru, забирай!