PrimaNota.ru - самый крупный в мире бесплатный архив песенных текстов, аккордов, табулатур и нот


Keola Beamer - Au Kai - таба, видео

Регистрация Запомнить меня
Войти через:  Facebook Google Twitter Vk Yandex Mail.ru

Keola Beamer - Au Kai - таба, видео

Печатать
Просмотров: 94
I did not write this tab! I simply got it from another source, all credit goes to James Carlton.


F Wahine Tuning- CFCGCE

http://www.kbeamer.com/


|------------------------------0---1--3---5--6----|
|----------------------0---2-------2------5-------|
|-------0--2-------3---------------0------5-------|
|--------------0-------------------0------0-------|
|-------------------------------------------------|
|---0---------------------------------------------|

2
|-------------------3---|-------------------5----|
|---------------2-------|---------------4--------|
|-----------3-----------|-----------5------------|
|-------0---------------|-------0----------------|
|-----------------------|------------------------|
|---0-------------------|---0--------------------|

4
|--------------------------|---------------------------|
|--------------------------|---------------------------|
|-----------0-----------0--|-----------0-----------0---|
|-------0-----------0------|-------0-----------0-------|
|---0-----------0----------|---0-----------0-----------|
|--------------------------|---------------------------|

6
|--------5-------5--------------------|
|------------5-----------2-------0----|
|*---------------------------3-------*|
|*-----------0---------------0-------*|
|----0---------------0----------------|
|-------------------------------------|

7
|-------3-------3-------1-------0---|
|-----------4---------------2---0---|
|-----------------------------------|
|-----------0---------------0-------|
|-----------------------------------|
|---0---------------0---------------|

8
|-------------------1--------------------|
|-------0h2p0---------------0------------|
|---------------3---------------2---0----|
|---------------0---------------0--------|
|-----------------------0----------------|
|---0------------------------------------|

9
|---------------0h1--------------------|
|-------------------------0-------0----|
|-------2---3-----------------2--------|
|-----------0-----------------0--------|
|---------------------0----------------|
|---0----------------------------------|

repeat bars 6 - 9
10
|--------17--------17-------13-------------|
|-------------17-----------------12---0----|
|*----------------------------------------*|
|*------------0------------------0--------*|
|----0------------------0------------------|
|------------------------------------------|

11
|-------15--------15-------13--------12----|
|------------16-----------------14---0-----|
|------------------------------------------|
|------------0------------------0----------|
|------------------------------------------|
|---0------------------0-------------------|

repeat bars 8 - 9, then bars 10 - 11, 8 - 9, then:

12
|--------8-------8-------6-------5-----|
|------------9---------------7---0-----|
|*------------------------------------*|
|*-----------0---------------0--------*|
|----0---------------0-----------------|
|--------------------------------------|

13
|-------12--------12-------10--------8----|
|------------12-----------------10---9----|
|-----------------------------------------|
|------------0------------------0---------|
|-----------------------------------------|
|---0------------------0------------------|

repeat bars 8 - 9

14
|------------------------5----------------|
|--------0h2p0-------0-------5-------0----|
|*---------------2---------------5-------*|
|*---------------0---------------0-------*|
|----0-------------------0----------------|
|-----------------------------------------|

15
|-----------------------3----------------|
|-------0h2p0-------0-------4-------0----|
|---------------3---------------5--------|
|---------------0---------------0--------|
|----------------------------------------|
|---0-------------------0----------------|

repeat bars 8 - 9

16
|-----------------------------------------|
|------------------0----------------------|
|*-----------2p0-------------------------*|
|*-------0--------------0h2p0---0h2p0----*|
|----0------------------------------------|
|-----------------------------------------|

17
|-----------------------------------------|
|-----------------0------------------0----|
|-------------5------------------3--------|
|-------0h4----------------0h2------------|
|-----------------------------------------|
|---0------------------0------------------|

repeat bars 8 - 9

18
|------------------------8-----------------|
|--------0h2p0-------0-------9--------0----|
|*---------------2---------------10-------*|
|*---------------0---------------0--------*|
|----0-------------------0-----------------|
|------------------------------------------|

19
|------------------------6----------------|
|-------0h2p0-------0--------7-------0----|
|---------------3----------------9--------|
|---------------0----------------0--------|
|-----------------------------------------|
|---0--------------------0----------------|

repeat bars 8 - 9

20
|--------5h6p5-------5---3---1------------|
|----------------0-------------------0----|
|*-------------------------------0-------*|
|*---------------0---------------0-------*|
|----0-------------------0----------------|
|-----------------------------------------|

21
|-------3h5p3-------3---1---0------------|
|---------------0-------------------0----|
|-------------------------------0--------|
|---------------0---------------0--------|
|----------------------------------------|
|---0-------------------0----------------|

repeat bars 8 - 9, then bars 20 - 21, 8 - 9
but picking close to bridge for that sharp sound

22
|-------------------------------------------------------|
|--------9-----------------0-------2---------------0----|
|*-----------10-------10---------------3-------3-------*|
|*----------------0------------------------0-----------*|
|----0-------------------------0------------------------|
|-------------------------------------------------------|

23
|-------------------------------------------------------|
|-------10-----------------0-------2---------------0----|
|------------12-------12---------------3-------3--------|
|-----------------0------------------------0------------|
|-------------------------------------------------------|
|---0--------------------------0------------------------|

repeat bars 8 - 9, then bars 22 - 23, 8 - 9

24
|-----------------0h1---------------------|
|---------0------------------0-------0----|
|-------------3------------------2--------|
|-------------0------------------0--------|
|------------------------0----------------|
|---ha5-----------------------------------|

25
|-----------------0h1---------------------|
|---------0------------------0-------0----|
|-------------3------------------2--------|
|---ha7-------0------------------0--------|
|------------------------0----------------|
|-----------------------------------------|

26
|-----------------0h1---------------------|
|---------0------------------0-------0----|
|-------------3------------------2--------|
|---ha5-------0------------------0--------|
|------------------------0----------------|
|-----------------------------------------|

27
|-----------------0h1---------------------|
|---------0-----------------0-------0-----|
|-------------3-----------------2---------|
|---ha9-------0-----------------0---------|
|-----------------------0-----------------|
|-----------------------------------------|

28
|-----------------0h1---------------------|
|---------0-----------------0-------0-----|
|---ha5-------3-----------------2---------|
|-------------0-----------------0---------|
|-----------------------0-----------------|
|-----------------------------------------|

29
|-------------------------------0---1---3---5--6---|
|-----------------------0---2---------------5------|
|-------0---2-------3-----------------------5------|
|---------------0---------------------------0------|
|--------------------------------------------------|
|---0----------------------------------------------|

30
|-------------------3---|---------------5----|
|---------------2-------|-----------4--------|
|-----------3-----------|-------5------------|
|-------0---------------|---0----------------|
|-----------------------|--------------------|
|---0-------------------|--------------------|

32
|-------------------1----|---13------------------|
|---------------0--------|-----------------------|
|-----------2------------|-----------------------|
|-------0----------------|-----------------------|
|---0--------------------|-----------------------|
|------------------------|-----------------------|
Добавлено: 08.05.2012
Вам также может быть интересно:
Другие материалы по этой песне:
  • Аккорды и текст

Страница создана 08.05.2012
http://primanota.ru/keola-beamer/au-kai-chords.htm
Привет, Гость.
Предлагаем пройти революционный курс по гитаре.
Подарок от PrimaNota.Ru, забирай!