PrimaNota.ru - самый крупный в мире бесплатный архив песенных текстов, аккордов, табулатур и нот


Kent - Musik Non Stop - аккорды и текст, видео

Регистрация Запомнить меня
Войти через:  Facebook Google Twitter Vk Yandex Mail.ru

Kent - Musik Non Stop - аккорды и текст, видео

Печатать
Просмотров: 102
Musik Non Stop
Kent
jag har ej gjort detta, tog den från kent.nu då jag tycker det är lättare att spela via denna site



Intro: |n.c.  |n.c.  |n.c.  |n.c.  | Gitarr 1
       |n.c.  |n.c.  |n.c.  |n.c.  | Gitarr 1 + Gitarr 2

       |Dm    |Am7   |Gm    |Gm    | 2x

Gitarr 1:
D --/3-3-3-3-3-3-3-3/5-5-5-5-5-5-5-5/--
A --/5-5-5-5-5-5-5-5/7-7-7-7-7-7-7-7/--

D ---8--8--8--8--8--8--8--8--8--8--8--8--8--8--8--8--
A --10-10-10-10-10-10-10-10-10-10-10-10-10-10-10-10--

Gitarr 2:
e --1--3-1-3-1--1/3-----5--3--5--3---------------------------------
B --3-----------3/5--5------------------3--6--3--1--1-------1------
G --2-----------2/5------------------3-----------------3p0----3p0--

Bas, se nedan.

Dm                Am7          Gm
  Jag behövde en hundradels sekund
  Dm                   Am7          Gm
  Nu när jag tagit beslutet är jag lugn
      Gm           Am7          Dm
  Visioner i mitt huvud när Du ler
           Gm             Am7
  Jag har hittat nånting vackert, vännen
   Gm
  ser du vad jag ser? 

  Jag är nästan som du... 

|Dm   |Dm   |

                Dm             Gm
  Och du är som  jag, när du dansar
               C             Dm
  Har aldrig träffat nån som du
            Dm             Gm
  Du är som  jag, när du dansar
     C
  Musik non stop till slut... 

|Dm   |Dm   |

Dm                        Am7       Gm
  Jag sa upp mig för att fånga lite sol
            Dm             Am7              Gm
  och jag flyttade mitt skrivbord och min stol
        Gm         Am7          Dm
  till nattgaraget under vårat hus
           Gm         Am7            Gm
  När jag sluter mina ögon ser jag ljuset

  Jag är nästan som du.... 

|Dm   |Dm    |

                Dm            Gm
  Och du är som  jag, när du dansar
               C             Dm
  Har aldrig träffat nån som du
            Dm            Gm
  Du är som  jag, när du dansar
     C
  Musik non stop till slut... 

|Dm    |Dm   |

Solo: |Gm    |Am7  |Dm   |Dm    | 2x

e ---------------------------------------
B ---------------------------------------
G --------10--10-12---12/14--12-10------
D --10/12---------------------------12--
A ---------------------------------------
E --------------------------------------- 2x

Dm                   Am7         Gm
  Så det tog mig en hundradels sekund
           Dm             Am7           Gm
  Jag har rest tillbaka i tiden, blivit ung
     Gm            Am7          Dm
  Visioner i mitt huvud när du ler
           Gm             Am7
  Jag har hittat nånting vackert, vännen
   Gm
  ser du vad jag ser?
                    Dm
  Jag är nästan som du... 

                Dm            Gm
  Och du är som  jag, när du dansar
               C             Dm
  Har aldrig träffat nån som du
            Dm            Gm
  Du är som  jag, när du dansar
     C                 Dm
  Musik non stop till slut 

                Dm            Gm
  Och du är som  jag, när du dansar
               C             Dm
  Har aldrig träffat nån som du
            Dm          Gm
  Du är som  jag, när du dansar
     C
  Musik non stop till slut... 

|Dm    |Dm    |Dm    |Dm    |

Dm

Kommentar: Gm = 355333
           Am7 = x02010 eller 575555
           n.c. = no chord

Bastabulatur:

Intro och två första versraderna:
G -----------------------------------
D --0-----0-2--0----0-----0-2---0----
A ----0-3---------3---0-3-----3------
E -----------------------------------

Från tredje versraden:
G --0-----0-2--0---------------------
D ----0-3---------3-0-----0-2-0------
A --------------------0-3-------3----
E -----------------------------------
"Visioner i mitt huvud..."

G -----------------------------------
D --0-----0-2--0----0-----0-2---0----
A ----0-3---------3---0-3-----3------
E --
Добавлено: 14.04.2016
Другие материалы по этой песне:

Страница создана 20.06.2012
http://primanota.ru/kent/musik-non-stop-chords.htm
Привет, Гость.
Предлагаем пройти революционный курс по гитаре.
Подарок от PrimaNota.Ru, забирай!