PrimaNota.ru - самый крупный в мире бесплатный архив песенных текстов, аккордов, табулатур и нот


Kent - M - аккорды и текст, видео

Регистрация Запомнить меня
Войти через:  Facebook Google Twitter Vk Yandex Mail.ru

Kent - M - аккорды и текст, видео

Печатать
Просмотров: 100
M
Kent
Intro:

 |Dm              |Bb7M            |F               |Am/C          |
e|----------------|----------------|----------------|--------------|
B|--------1-------|----------------|------1---------|--------------|
G|------2----2--0-|----------------|----2----2-----/|9-------------|
D|----------------|-3--------------|----------------|--------------|

 |Dm              |Bb7M            |F               |Am/C          |
e|----------------|----------------|----------------|0-------------|
B|--------1-------|----------------|------1---------|----1-----3---|
G|------2----2--0-|-2--------------|----2----2------|-------2------|
D|----------------|----------------|----------------|--------------|

Dm          Bb7M             F
 Du faller handlöst framför mig
       C               Dm
på din väg mot okända land
             Bb7M           Gm
Och när din sjukdom tagit dig
        C                  Dm
ska jag ge någon gata ditt namn 

              Bb7M  
Tar fram vår kamera
             C
Tar ännu en bild
Bb7M          C                 F
 Där du bara ler och ligger still 

Bb              F      Am    Bb
 Det verkar så enkelt vännen
     Gm        C    Dm Dm/C  Bb
Ändå är det så obegripligt svårt
                   F      Am    Bb
Ja, det verkar så enkelt vännen
         Gm           C
Men ingenting i denna världen var
    Bb7M     C
väl någonsin lätt att förstå

Mellanspel:

 |Dm              |Bb7M            |F               |Am/C          |
e|----------------|----------------|----------------|--------------|
B|--------1-------|----------------|------1---------|--------------|
G|------2----2--0-|----------------|----2----2-----/|9-------------|
D|----------------|-3--------------|----------------|--------------|

 |Dm              |Bb7M            |F               |Am/C          |
e|----------------|----------------|----------------|0-------------|
B|--------1-------|----------------|----------------|----1-----3---|
G|------2----2--0-|-2--------------|----------------|-------2------|
D|----------------|----------------|----------------|--------------|

Dm           Bb7M             F
 Jag tog en roll när du blev sjuk
   C                       Dm
En roll som krävde hårdare hud
            Bb7M             Gm
Min kraftreserv den tar snart slut
        C                     Dm
Som min tro på en ingripande gud

              Bb7M                   C
I ditt stora hjärta börjar slagen bli små
Bb7M             C              Dm   Am
 Och du rör min kind så jag förstår
Bb7M               C
 att det bara är timmar tills du går

Stick:

 |Bb      Gm      |C       Dm  Dm/C|Bb      Gm      |C       Dm Dm/C |
e|1-1-1-1-1-1-1-1-|5-5-5-5-5-5-5-5-|----------------|--------------1-|
B|----------------|----------------|3-3-3-1-3-1-3---|----3-1-3-1-3---|
G|----------------|----------------|--------------0-|-2--------------|
D|----------------|----------------|----------------|----------------|

  Lalalalalala...

 |Bb      Gm      |C       Dm  Dm/C|Bb              |C               |
e|1-1-1-1-1-1-1-1-|5-5-5-5-5-5-5-5-|----------------PIP


Läs mer: http://kent.nu/latar/m/#ixzz1v2P5zRFz
Добавлено: 18.09.2013
Другие материалы по этой песне:
  • Аккорды и текст

Страница создана 18.09.2013
http://primanota.ru/kent/m-chords.htm
Привет, Гость.
Предлагаем пройти революционный курс по гитаре.
Подарок от PrimaNota.Ru, забирай!