PrimaNota.ru - самый крупный в мире бесплатный архив песенных текстов, аккордов, табулатур и нот


Kent - Kräm (Så Nära Får Ingen Gå) - аккорды и текст, видео

Регистрация Запомнить меня
Войти через:  Facebook Google Twitter Vk Yandex Mail.ru

Kent - Kräm (Så Nära Får Ingen Gå) - аккорды и текст, видео

Печатать
Просмотров: 28
Уроки эстрадного вокала в Санкт-Петербурге
Авторы музыки: Martin Sköld, Joakim Berg
Авторы текста: Joakim Berg
Kräm (Så Nära Får Ingen Gå)
Kent
Text: J. Berg
Musik: J. Berg / M. Sköld


Intro: |F    |Dm   |Bb   |Bb   | 2x

   F           Dm           Bb 
e|-----------------------------------------------| 
B|----------1------------------------------------| 
G|-2-----2---------------------------------------| 
D|-------------2~-----2-3-0-----0----------------| 
A|---------------------------------3----0--------| 
E|------------------------------------------3-1--| x2

[Chorus 1]
 Dm              Bb 
Jag vill ha din ryggrad här 
 F     F/A Bb C 
fäst den i mig
 Dm            Bb
Jag är alltid tryggast när
 F  F/A   Bb         C 
du är en liten bit ifrån 
en rörelse i ögonvrån

|F |Dm |Bb |Bb |

en rörelse i ögonvrån

|F |Dm |Bb |Bb |

[Chorus 2]
 Dm             Bb 
Lägg dig ner i gräset nu
 F  F/A  Bb C
Du är så varm här
 Dm              Bb
Jag vill ha min tunga där
 F  F/A    Bb              C
du är, så nära att du bli våt 
men så nära får ingen gå

|F |Dm |Bb |Bb |

så nära får ingen gå

|F |Dm |Bb |Bb |

så nära får ingen gå...
 
[Solo] 
  F                     Am       Gm 
e|---------8---8---8----b10--8----------------|
B|-/10-10---10--10--10-----------b8-----------|
G|----------------------------------10--7-----|
D|--------------------------------------------|
A|--------------------------------------------|
E|--------------------------------------------|

  F                      Am       C 
e|---------8---8---8-----b15--13--b12------------|
B|-/10-10---10--10--10----------------13--10-----|
G|-----------------------------------------------|
D|-----------------------------------------------|
A|-----------------------------------------------|
E|-----------------------------------------------|

  Bb                    Am 
e|--------8---8---8-----b10--8-------------------|
B|--8-10---10--10--10----------b8----------------|
G|---------------------------------10--7---------|
D|-----------------------------------------------|
A|-----------------------------------------------|
E|-----------------------------------------------|

  Bb                    C 
e|--------8---8---8-----15-15-15-15-15----15-15-15-15-15--|
B|--8-10---10--10--10---15-15-15-15-15----15-15-15-15-15--|
G|--------------------------------------------------------|
D|--------------------------------------------------------|
A|--------------------------------------------------------|
E|--------------------------------------------------------|

[Chorus 3]
 Dm              Bb 
Lägg dig ner precis som du 
F    F/A Bb C 
alltid gör när
 Dm             Bb
Jag vill ha min tunga där 
 F  F/A    Bb               C 
du är, så nära att du blir våt men 
så nära får ingen gå 

|F |Dm |Bb |Bb | 

så nära får ingen gå... 

|F |Dm |Bb |Bb | F

Läs mer: http://kent.nu/latar/kram-sa-nara-far-ingen-ga/#ixzz4U9qwQDH7
Добавлено: 11.11.2017
Другие материалы по этой песне:
  • Аккорды и текст

Страница создана 11.05.2012
http://primanota.ru/kent/kram-sa-nara-far-ingen-ga-chords.htm
Привет, Гость.
Предлагаем пройти революционный курс по гитаре.
Подарок от PrimaNota.Ru, забирай!