PrimaNota.ru - самый крупный в мире бесплатный архив песенных текстов, аккордов, табулатур и нот


Kent - Chans - текст песни, таба, видео

Регистрация Запомнить меня
Войти через:  Facebook Google Twitter Vk Yandex Mail.ru

Kent - Chans - текст песни, таба, видео

Печатать
Просмотров: 202
Авторы музыки: Joakim Berg
Авторы текста: Joakim Berg
Text: J. Berg    Musik:    Skiva: B-sidor 95-00
Uppdaterad: 010817

Se kommentar ang. tonart.


Intro: |C    |C    |C    |C    |


Am            G       F       G            Am
  I trängseln utanför, sen december ingen snö
             G       Fmaj7     Em
  Jag följer efter dig, genom kön
Dm7           G      C               Fmaj7
  Du stryker fingrarna lätt mot min kind
Dm7         G         F               G
  och i ett ögonblick, då allt står still

      C                    Am
  Så får jag en chans att säga
  F                    C
  allt det jag aldrig sagt.
      C                   Am
  Så får jag en chans att ge dig
  F                   C
  allt det du aldrig haft

  men jag var för feg

|Am   |G    |F    |G    |

Am              G           F       G               Am
  Det finns ett enkelt svar, du är varm när jag är kall
             G       Fmaj7       Em
  du tar så lite plats, jag tar allt
Dm7            G      C               Fmaj7
  jag trycker läpparna, lätt mot din hals
Dm7            G       F           G
  jag frågar gråter du, du smakar salt


      C                    Am
  Du gav mig en chans att säga
  F                    C
  allt det jag aldrig sagt
      C                   Am
  Du gav mig en chans att ge dig
  F                    C
  allt det jag aldrig ger dig

           C                Am
  och de små, små orden är svåra ord
          F             C
  och de hårda orden är enkla ord
       C                    Am
  och jag fick chansen, du gav mig chansen
   F                 Am
  men nu är det för sent
     G/B
  nu är det för sent...


Solo: |C    |C    |Am   |Am    | 2x

           C               Am
  och de små små orden är svåra ord
          F             C
  och de hårda orden är enkla ord
       C                    Am
  och jag fick chansen, du gav mig chansen
   F                 Am
  men nu är det för sent
     G/B
  nu är det för sent...

|C    |Am    |F     |C    | 4x (repeat and fade)


 Intro:
e|--16--16--13----16--16--13---|


 Solo:
e|--------------------------------------------|
B|--/13/14\13------*16b--13/14\13------*16\---| osv...
G|--------------15------------------15--------|
D|--------------------------------------------|
A|--------------------------------------------|
E|--------------------------------------------|

*16b = greppa band 16, bänd upp det två band, slå an tonen
       och bänd därefter ner den till sitt ursprungsläge.


  Gitarr under andra halvan av versen:
   Dm        G          C          Fmaj7
e|------6---|----------|----------|---------|
B|---5------|------3---|------5---|-5-------|
G|----------|---4------|---5------|------5--|
D|-0--------|-5--------|-5--------|---7-----|
A|----------|----------|----------|---------|
E|----------|----------|----------|---------|

   Dm        G          F          G
e|------1---|----------|----------|---------|
B|---1------|------3---|------1---|------3--|
G|----------|---4------|---2------|---4-----|
D|-0--------|-5--------|-3--------|-5-------|
A|----------|----------|----------|---------|
E|----------|----------|----------|---------|
Добавлено: 06.03.2012
Другие материалы по этой песне:
  • Аккорды и текст

Страница создана 06.03.2012
http://primanota.ru/kent/chans-chords.htm
Привет, Гость.
Предлагаем пройти революционный курс по гитаре.
Подарок от PrimaNota.Ru, забирай!