PrimaNota.ru - самый крупный в мире бесплатный архив песенных текстов, аккордов, табулатур и нот


Kent Leroy - Quiero Escucharte Decir Que Me Amas - аккорды и текст, видео

Регистрация Запомнить меня
Войти через:  Facebook Google Twitter Vk Yandex Mail.ru

Kent Leroy - Quiero Escucharte Decir Que Me Amas - аккорды и текст, видео

Печатать
Просмотров: 87
Quiero Escucharte Decir Que Me Amas
Kent Leroy
INTRO:
   G              Bm7     Bbm7 Am7
e--7v---7-8-10-10s12-10----9----8---------------------------------|
B------------------------------------7h8s10-----------------------|
G---------------------------------------------5h7s9-7-------------|


G         Bm7      Am7   C9     G
Vamos a mirar la belleza de los campos
    G             Bm7       Am7             G       D
Las flores y escuchar a los pájaros volando libres… libres

CORO:
          C            D         G   G7
Quiero correr por los campos contigo
         C      D           G  G7
Quiero tomar tu mano y caminar
           C       D       Bm7         Em
Quiero sentir tu cabello movido por el viento
     C          A       D          G
Yo quiero escucharte decir… que me amas.


INTER:
   G              Bm7     Bbm7 Am7
e--7v---7-8-10-10s12-10----9----8---------------------------------|
B------------------------------------7h8s10-----------------------|
G---------------------------------------------5h7s9-7-------------|

G             Bm7          Am7    C9    G
Vamos a conversar quiero decirte que te amo
                          Bm7
No tengas miedo porque yo se
             Am7         G           D
que nuestro amor no morirá jamás, jamás.

CORO:
          C            D         G   G7
Quiero correr por los campos contigo
         C      D           G  G7
Quiero tomar tu mano y caminar
           C       D       Bm7         Em
Quiero sentir tu cabello movido por el viento
     C          A7      D          G    G7
Yo quiero escucharte decir… que me amas.

          C            D         G   G7
Quiero correr por los campos contigo
         C      D           G  G7
Quiero tomar tu mano y caminar
           C       D       Bm7         Em
Quiero sentir tu cabello movido por el viento
     C          A       D          G
Yo quiero escucharte decir… que me amas.


   G              Bm7     Bbm7 Am7
e--7v---7-8-10-10s12-10----9----8---------------------------------|
B------------------------------------7h8s10-----------------------|
G---------------------------------------------5h7s9-7-------------|


       G         Bm7  Bbm7 Am7
Que me amaaaaaas…
       G
Que me amas.
Добавлено: 27.05.2012
Другие материалы по этой песне:
  • Аккорды и текст

Страница создана 27.05.2012
http://primanota.ru/kent-leroy/quiero-escucharte-decir-que-me-amas-chords.htm
Привет, Гость.
Предлагаем пройти революционный курс по гитаре.
Подарок от PrimaNota.Ru, забирай!