PrimaNota.ru - самый крупный в мире бесплатный архив песенных текстов, аккордов, табулатур и нот


Kensington - The Heart Of It - таба, видео

Регистрация Запомнить меня
Войти через:  Facebook Google Twitter Vk Yandex Mail.ru

Kensington - The Heart Of It - таба, видео

Печатать
Просмотров: 134
Уроки эстрадного вокала в Санкт-Петербурге
This is my first tab ever, so there will probably be some minor mishearing. I hope it 
sounds a bit like it should!

Main Riff/Intro
e|-------9-(11/)16-13-9-11-9-|
B|---9-11--------------------|
G|---------------------------|
D|---------------------------|
A|---------------------------|
E|---------------------------|

Chorus
e|---x--x--x--x----x--x--x--x----x--x--x--x----x--x--x--x--|
B|---x--x--x---x---x--x--x--x----x--x--x--x----x--x--x--x--|
G|---15-15-15-15---13-13-13-13---15-15-15-15---13-13-13-13-|
D|---15-15-15-15---13-13-13-13---15-15-15-15---13-13-13-13-|
A|---13-13-13-13---11-11-11-11---13-13-13-13---11-11-11-11-|
E|---x--x--x--x----x--x--x--x----x--x--x--x----x--x--x--x--|

Verse
Main Riff 8x

Chorus 2
2x
e|---x--x--x--x----x--x--x---x------x--x--x--x-|
B|---x--x--x--x----x--x--x---x------x--x--x--x-|
G|---15-15-15-15---15-15-15-15-----13-13-13-13-|
D|---15-15-15-15---15-15-15-15-----13-13-13-13-|
A|---13-13-13-13---13-13-13-13-----11-11-11-11-|
E|---x--x--x--x----x--x--x--x------x--x--x--x--|


---x--x--x--x---x--x--x--x---x--x--x--x---x--x--x--x--x-x--x--x--x---x--x--x--x---x--x--x--x--|
---x--x--x--x---x--x--x--x---x--x--x--x---x--x--x--x--x-x--x--x--x---x--x--x--x---x--x--x--x--|
---15-15-15-15--13-13-13-13--15-15-15-15--13-13-13-13-x-11-11-11-11--13-13-13-13--15-15-15-15-|
---15-15-15-15--13-13-13-13--15-15-15-15--13-13-13-13-x-11-11-11-11--13-13-13-13--15-15-15-15-|
---13-13-13-13--11-11-11-11--13-13-13-13--11-11-11-11-x-9--9--9--9---11-11-11-11--13-13-13-13-|
---x--x--x--x---x--x--x--x---x--x--x--x---x--x--x--x--x-x--x--x--x---x--x--x--x---x--x--x--x--|

Verse 2
Main Riff 8x

Bridge
|---x--x--x--x---x--x--x--x---x---x--x--x--x---x--x--x--x---x---x--x--x--x---x--x--x--x---x--x--|
|---x--x--x--x---x--x--x--x---x---x--x--x--x---x--x--x--x---x---x--x--x--x---x--x--x--x---x--x--|
|---11-11-11-11--11-11-11-11--8---11-11-11-11--11-11-11-11--8---9--9--9--9---9--9--9--9---8--11-|
|---11-11-11-11--11-11-11-11--9---11-11-11-11--11-11-11-11--9---10-10-10-10--10-10-10-10--9--12-|
|---9--9--9--9---9--9--9--9---7---9--9--9--9---9--9--9--9---7---8--8--8--8---8--8--8--8---7--10-|
|---x--x--x--x---x--x--x--x---x---x--x--x---x--x--x--x--x---x---x--x--x--x---x--x--x--x---x--x--|

Solo
e|-----------------------------------------------------------|
B|-----------------------------------------------------------|
G|---------13-10-----------------13-10----------10-----13-10-|
D|---11-13-------13-11---------11------13-11-13--------------|
A|---------------------13-11------------------------13-------|
E|-----------------------------------------------------------|

-------------------------------------------|
-------------------------------------------|
-------------------13-10----------8h10-----|
11-13-11----11--11-------13-10-13------11--|
---------13--------------------------------|
-------------------------------------------|


Verse 3
Main Riff 8x

Outro
Main Riff 4x
Добавлено: 20.04.2012
Другие материалы по этой песне:
  • Аккорды и текст

Страница создана 20.04.2012
http://primanota.ru/kensington/the-heart-of-it-chords.htm
Привет, Гость.
Предлагаем пройти революционный курс по гитаре.
Подарок от PrimaNota.Ru, забирай!