PrimaNota.ru - самый крупный в мире бесплатный архив песенных текстов, аккордов, табулатур и нот


Kensington - Not As Bright - таба, бас-таба, видео

Регистрация Запомнить меня
Войти через:  Facebook Google Twitter Vk Yandex Mail.ru

Kensington - Not As Bright - таба, бас-таба, видео

Печатать
Просмотров: 124
http://www.kensingtonband.com/

Not As Bright


                                                                      Kensington
Guitar 1

      |--3--|  3   |-3| |--3--|  3   |-3|
      E  E  E  E.  E  S E  E  E  E.  E  S
D#||--------7-----------------5-----------|
A#||--8------------8----7------------7----|
F#||--------------------------------------|
C#||--------------------------------------|
G#||--------------------------------------|
C#||--------------------------------------|


  |--3--|  3   |-3|  |--3--|  3    |-3|    |--3--|  3   |-3| |--3--|  3   |-3|
  E  E  E  E.  E  S  E  E  E  E.   E  S    E  E  E  E.  E  S E  E  E  E.  E  S
--------7------------------8------------|--------------------------------------|
--8------------8----10------------10----|--------------------------------------|
----------------------------------------|--------------------------------------|
----------------------------------------|--------------------------------------|
----------------------------------------|--------------------------------------|
----------------------------------------|--2-----2------2----2-----2------2----|


  |--3--|  3   |-3| |--3--|  3   |-3|    |--3--|  3   |-3| |--3--|  3   |-3|
  E  E  E  E.  E  S E  E  E  E.  E  S    E  E  E  E.  E  S E  E  E  E.  E  S
--------------------------------------|--------------------------------------|
--------------------------------------|--------------------------------------|
--------------------------------------|--------------------------------------|
--------------------------------------|--------------------------------------|
--------------------------------------|--------------------------------------|
--2-----2------2----2-----2------2----|--2-----2------2----2-----2------2----|


  |--3--|  3   |-3| |--3--|  3   |-3|    |--3--|  3   |-3| |--3--|  3   |-3|
  E  E  E  E.  E  S E  E  E  E.  E  S    E  E  E  E.  E  S E  E  E  E.  E  S
--------------------------------------|--------------------------------------|
--------------------------------------|--------------------------------------|
--------------------------------------|--------------------------------------|
--------------------------------------|--------------------------------------|
--------------------------------------|--------------------------------------|
--2-----2------2----2-----2------2----|--2-----2------2----2-----2------2----|


  |--3--|  3   |-3| |--3--|  3   |-3|    |--3--|  3   |-3| |--3--|  3   |-3|
  E  E  E  E.  E  S E  E  E  E.  E  S    E  E  E  E.  E  S E  E  E  E.  E  S
--------------------------------------|--------------------------------------|
--------------------------------------|--------------------------------------|
--------------------------------------|--------------------------------------|
--------------------------------------|--------------------------------------|
--------------------------------------|--------------------------------------|
--2-----2------2----2-----2------2----|--2-----2------2----2-----2------2----|


  |--3--|  3   |-3| |--3--|  3   |-3|     |-----3-----|     |-----3-----|
  E  E  E  E.  E  S E  E  E  E.  E  S     Q     Q     Q     Q     Q     Q
--------------------------------------|--------------------------------------|
--------------------------------------|--------------------------------------|
--------------------------------------|--------------------------------------|
--------------------------------------|--------12----10----------12----10----|
--------------------------------------|--------------------------------------|
--2-----2------2----2-----2------2----|--10----------------10----------------|


  |-----3----|    |-----3----|       |--3--|  3   |-3| |--3--|  3   |-3|
  Q     Q    Q    Q     Q    Q       E  E  E  E.  E  S E  E  E  E.  E  S
----------------------------------|--------------------------------------|
----------------------------------|--------------------------------------|
----------------------------------|--------------------------------------|
-------10----7---------10----7----|--------------------------------------|
----------------------------------|--------------------------------------|
--7---------------7---------------|--2-----2------2----2-----2------2----|


  |--3--|  3   |-3| |--3--|  3   |-3|     |-----3-----|     |-----3-----|
  E  E  E  E.  E  S E  E  E  E.  E  S     Q     Q     Q     Q     Q     Q
--------------------------------------|--------------------------------------|
--------------------------------------|--------------------------------------|
--------------------------------------|--------------------------------------|
--------------------------------------|--------12----10----------12----10----|
--------------------------------------|--------------------------------------|
--2-----2------2----2-----2------2----|--10----------------10----------------|


  |-----3----|    |-----3----|       |--3--|  3   |-3| |--3--|  3   |-3|
  Q     Q    Q    Q     Q    Q       E  E  E  E.  E  S E  E  E  E.  E  S
----------------------------------|--------------------------------------|
----------------------------------|--------------------------------------|
----------------------------------|--------------------------------------|
-------10----7---------10----7----|--------------------------------------|
----------------------------------|--------------------------------------|
--7---------------7---------------|--2-----2------2----2-----2------2----|


  |--3--|  3   |-3| |--3--|  3   |-3|    |----3----|    |----3----|
  E  E  E  E.  E  S E  E  E  E.  E  S    Q    Q    Q    Q    Q    Q
--------------------------------------|--------------------------------|
--------------------------------------|--------------------------------|
--------------------------------------|-------2----0---------0----2----|
--------------------------------------|--2--------------2--------------|
--------------------------------------|--------------------------------|
--2-----2------2----1-----1------1----|--------------------------------|


  |----3----|    |----3----|       |----3----|    |----3----|
  Q    Q    Q    Q    Q    Q       Q    Q    Q    Q    Q    Q
--------------------------------|--------------------------------|
--------------------------------|--------------------------------|
-------2----0---------0----2----|-------2----0--------------2----|
--2--------------2--------------|--2--------------4----2---------|
--------------------------------|--------------------------------|
--------------------------------|--------------------------------|


  |----3----|    |----3----|       |--3--|  3   |-3| |--3--|  3   |-3|
  Q    Q    Q    Q    Q    Q       E  E  E  E.  E  S E  E  E  E.  E  S
--------------------------------|--------------------------------------|
--------------------------------|--------------------------------------|
-------0---------2----0---------|--------------------------------------|
--2---------2--------------4----|--------------------------------------|
--------------------------------|--------------------------------------|
--------------------------------|--2-----2------2----2-----2------2----|


  |--3--|  3   |-3| |--3--|  3   |-3|    |--3--|  3   |-3| |--3--|  3   |-3|
  E  E  E  E.  E  S E  E  E  E.  E  S    E  E  E  E.  E  S E  E  E  E.  E  S
--------------------------------------|--------------------------------------|
--------------------------------------|--------------------------------------|
--------------------------------------|--------------------------------------|
--------------------------------------|--------------------------------------|
--------------------------------------|--------------------------------------|
--2-----2------2----2-----2------2----|--2-----2------2----2-----2------2----|


  |--3--|  3   |-3| |--3--|  3   |-3|    |----3----|    |----3----|
  E  E  E  E.  E  S E  E  E  E.  E  S    Q    Q    Q    Q    Q    Q
--------------------------------------|--------------------------------|
--------------------------------------|--------------------------------|
--------------------------------------|-------2----0---------0----2----|
--------------------------------------|--2--------------2--------------|
--------------------------------------|--------------------------------|
--2-----2------2----2-----2------2----|--------------------------------|


  |----3----|    |----3----|       |----3----|    |----3----|
  Q    Q    Q    Q    Q    Q       Q    Q    Q    Q    Q    Q
--------------------------------|--------------------------------|
--------------------------------|--------------------------------|
-------2----0---------0----2----|-------2----0--------------2----|
--2--------------2--------------|--2--------------4----2---------|
--------------------------------|--------------------------------|
--------------------------------|--------------------------------|


                                          |--3--|  3   |-3| |--3--|  3   |-3|
  W                                       E  E  E  E.  E  S E  E  E  E.  E  S
-------------------|-------------------|--------------------------------------|
-------------------|-------------------|--8-----8------8----8-----7-----------|
-------------------|-------------------|---------------------------------7----|
--2----------------|-------------------|--------------------------------------|
-------------------|-------------------|--------------------------------------|
-------------------|-------------------|--------------------------------------|


  |--3--|  3   |-3| |--3--|  3   |-3|    |--3--|  3   |-3| |--3--|  3   |-3|
  E  E  E  E.  E  S E  E  E  E.  E  S    E  E  E  E.  E  S E  E  E  E.  E  S
--------------------------------------|--------------------------------------|
--5-----5------5----5-----8------7----|--5-----5------5----5-----------------|
--------------------------------------|--------------------------5------5----|
--------------------------------------|--------------------------------------|
--------------------------------------|--------------------------------------|
--------------------------------------|--------------------------------------|


  |--3--|  3   |-3| |--3--|  3   |-3|    |--3--|  3   |-3| |--3--|  3   |-3|
  E  E  E  E.  E  S E  E  E  E.  E  S    E  E  E  E.  E  S E  E  E  E.  E  S
--------------------------------------|--------------------------------------|
--------------------------------------|--8-----8------8----8-----7-----------|
--4-----4------4----4-----4-----------|---------------------------------7----|
---------------------------------2----|--------------------------------------|
--------------------------------------|--------------------------------------|
--------------------------------------|--------------------------------------|


  |--3--|  3   |-3| |--3--|  3   |-3|    |--3--|  3   |-3| |--3--|  3   |-3|
  E  E  E  E.  E  S E  E  E  E.  E  S    E  E  E  E.  E  S E  E  E  E.  E  S
--------------------------------------|--------------------------------------|
--5-----5------5----5-----8------7----|--5-----5------5----5-----------------|
--------------------------------------|--------------------------5------5----|
--------------------------------------|--------------------------------------|
--------------------------------------|--------------------------------------|
--------------------------------------|--------------------------------------|


  |--3--|  3   |-3| |--3--|  3   |-3|    |--3--|  3   |-3| |--3--|  3   |-3|
  E  E  E  E.  E  S E  E  E  E.  E  S    E  E  E  E.  E  S E  E  E  E.  E  S
--------------------------------------|--------------------------------------|
--------------------------------------|--------------------------------------|
--4-----4------4----4-----4-----------|--------------------------------------|
---------------------------------2----|--------------------------------------|
--------------------------------------|--------------------------------------|
--------------------------------------|--2-----2------2----2-----2------2----|


  |--3--|  3   |-3| |--3--|  3   |-3|    |--3--|  3   |-3| |--3--|  3   |-3|
  E  E  E  E.  E  S E  E  E  E.  E  S    E  E  E  E.  E  S E  E  E  E.  E  S
--------------------------------------|--------------------------------------|
--------------------------------------|--------------------------------------|
--------------------------------------|--------------------------------------|
--------------------------------------|--------------------------------------|
--------------------------------------|--------------------------------------|
--2-----2------2----2-----2------2----|--2-----2------2----2-----2------2----|


  |--3--|  3   |-3| |--3--|  3   |-3|    |--3--|  3   |-3| |--3--|  3   |-3|
  E  E  E  E.  E  S E  E  E  E.  E  S    E  E  E  E.  E  S E  E  E  E.  E  S
--------------------------------------|--------------------------------------|
--------------------------------------|--------------------------------------|
--------------------------------------|--------------------------------------|
--------------------------------------|--------------------------------------|
--------------------------------------|--------------------------------------|
--2-----2------2----2-----2------2----|--2-----2------2----2-----2------2----|


  |--3--|  3   |-3| |--3--|  3   |-3|    |--3--|  3   |-3| |--3--|  3   |-3|
  E  E  E  E.  E  S E  E  E  E.  E  S    E  E  E  E.  E  S E  E  E  E.  E  S
--------------------------------------|--------------------------------------|
--------------------------------------|--------------------------------------|
--------------------------------------|--------------------------------------|
--------------------------------------|--------------------------------------|
--------------------------------------|--------------------------------------|
--2-----2------2----2-----2------2----|--2-----2------2----2-----2------2----|


  |--3--|  3   |-3| |--3--|  3   |-3|     |-----3-----|     |-----3-----|
  E  E  E  E.  E  S E  E  E  E.  E  S     Q     Q     Q     Q     Q     Q
--------------------------------------|--------------------------------------|
--------------------------------------|--------------------------------------|
--------------------------------------|--------------------------------------|
--------------------------------------|--------12----10----------12----10----|
--------------------------------------|--------------------------------------|
--2-----2------2----2-----2------2----|--10----------------10----------------|


  |-----3----|    |-----3----|       |--3--|  3   |-3| |--3--|  3   |-3|
  Q     Q    Q    Q     Q    Q       E  E  E  E.  E  S E  E  E  E.  E  S
----------------------------------|--------------------------------------|
----------------------------------|--------------------------------------|
----------------------------------|--------------------------------------|
-------10----7---------10----7----|--------------------------------------|
----------------------------------|--------------------------------------|
--7---------------7---------------|--2-----2------2----2-----2------2----|


  |--3--|  3   |-3| |--3--|  3   |-3|     |-----3-----|     |-----3-----|
  E  E  E  E.  E  S E  E  E  E.  E  S     Q     Q     Q     Q     Q     Q
--------------------------------------|--------------------------------------|
--------------------------------------|--------------------------------------|
--------------------------------------|--------------------------------------|
--------------------------------------|--------12----10----------12----10----|
--------------------------------------|--------------------------------------|
--2-----2------2----2-----2------2----|--10----------------10----------------|


                                     PM    PM     PM   PM    PM     PM
  |-----3----|    |-----3----|       |--3--|  3   |-3| |--3--|  3   |-3|
  Q     Q    Q    Q     Q    Q       E  E  E  E.  E  S E  E  E  E.  E  S
----------------------------------|--------------------------------------|
----------------------------------|--------------------------------------|
----------------------------------|--------------------------------------|
-------10----7---------10----7----|--------------------------------------|
----------------------------------|--------------------------------------|
--7---------------7---------------|--2-----2------2----2-----2------2----|


  PM    PM     PM   PM    PM     PM
  |--3--|  3   |-3| |--3--|  3   |-3|    |----3----|    |----3----|
  E  E  E  E.  E  S E  E  E  E.  E  S    Q    Q    Q    Q    Q    Q
--------------------------------------|--------------------------------|
--------------------------------------|--------------------------------|
--------------------------------------|-------2----0---------0----2----|
--------------------------------------|--2--------------2--------------|
--------------------------------------|--------------------------------|
--2-----2------2----1-----1------1----|--------------------------------|


  |----3----|    |----3----|       |----3----|    |----3----|
  Q    Q    Q    Q    Q    Q       Q    Q    Q    Q    Q    Q
--------------------------------|--------------------------------|
--------------------------------|--------------------------------|
-------2----0---------0----2----|-------2----0--------------2----|
--2--------------2--------------|--2--------------4----2---------|
--------------------------------|--------------------------------|
--------------------------------|--------------------------------|


  |----3----|    |----3----|       |--3--|  3   |-3| |--3--|  3   |-3|
  Q    Q    Q    Q    Q    Q       E  E  E  E.  E  S E  E  E  E.  E  S
--------------------------------|--------7-----------------5-----------|
--------------------------------|--8------------8----7------------7----|
-------0---------2----0---------|--------------------------------------|
--2---------2--------------4----|--------------------------------------|
--------------------------------|--------------------------------------|
--------------------------------|--------------------------------------|


  |--3--|  3   |-3|  |--3--|  3    |-3|    |--3--|  3   |-3| |--3--|  3   |-3|
  E  E  E  E.  E  S  E  E  E  E.   E  S    E  E  E  E.  E  S E  E  E  E.  E  S
--------7------------------8------------|--------7-----------------5-----------|
--8------------8----10------------10----|--8------------8----7------------7----|
----------------------------------------|--------------------------------------|
----------------------------------------|--------------------------------------|
----------------------------------------|--------------------------------------|
----------------------------------------|--------------------------------------|


  |--3--|  3   |-3|  |--3--|  3    |-3|    |----3----|    |----3----|
  E  E  E  E.  E  S  E  E  E  E.   E  S    Q    Q    Q    Q    Q    Q
--------7------------------8------------|--------------------------------|
--8------------8----10------------10----|--------------------------------|
----------------------------------------|-------2----0---------0----2----|
----------------------------------------|--2--------------2--------------|
----------------------------------------|--------------------------------|
----------------------------------------|--------------------------------|


  |----3----|    |----3----|       |----3----|    |----3----|
  Q    Q    Q    Q    Q    Q       Q    Q    Q    Q    Q    Q
--------------------------------|--------------------------------|
--------------------------------|--------------------------------|
-------2----0---------0----2----|-------2----0--------------2----|
--2--------------2--------------|--2--------------4----2---------|
--------------------------------|--------------------------------|
--------------------------------|--------------------------------|


                                          |--3--|  3   |-3| |--3--|  3   |-3|
  W                                       E  E  E  E.  E  S E  E  E  E.  E  S
-------------------|-------------------|--------------------------------------|
-------------------|-------------------|--8-----8------8----8-----7-----------|
-------------------|-------------------|---------------------------------7----|
--2----------------|-------------------|--------------------------------------|
-------------------|-------------------|--------------------------------------|
-------------------|-------------------|--------------------------------------|


  |--3--|  3   |-3| |--3--|  3   |-3|    |--3--|  3   |-3| |--3--|  3   |-3|
  E  E  E  E.  E  S E  E  E  E.  E  S    E  E  E  E.  E  S E  E  E  E.  E  S
--------------------------------------|--------------------------------------|
--5-----5------5----5-----8------7----|--5-----5------5----5-----------------|
--------------------------------------|--------------------------5------5----|
--------------------------------------|--------------------------------------|
--------------------------------------|--------------------------------------|
--------------------------------------|--------------------------------------|


  |--3--|  3   |-3| |--3--|  3   |-3|    |--3--|  3   |-3| |--3--|  3   |-3|
  E  E  E  E.  E  S E  E  E  E.  E  S    E  E  E  E.  E  S E  E  E  E.  E  S
--------------------------------------|--------------------------------------|
--------------------------------------|--8-----8------8----8-----7-----------|
--4-----4------4----4-----4-----------|---------------------------------7----|
---------------------------------2----|--------------------------------------|
--------------------------------------|--------------------------------------|
--------------------------------------|--------------------------------------|


  |--3--|  3   |-3| |--3--|  3   |-3|    |--3--|  3   |-3| |--3--|  3   |-3|
  E  E  E  E.  E  S E  E  E  E.  E  S    E  E  E  E.  E  S E  E  E  E.  E  S
--------------------------------------|--------------------------------------|
--5-----5------5----5-----8------7----|--5-----5------5----5-----------------|
--------------------------------------|--------------------------5------5----|
--------------------------------------|--------------------------------------|
--------------------------------------|--------------------------------------|
--------------------------------------|--------------------------------------|


  |--3--|  3   |-3| |--3--|  3   |-3|    |--3--|  3   |-3| |--3--|  3   |-3|
  E  E  E  E.  E  S E  E  E  E.  E  S    E  E  E  E.  E  S E  E  E  E.  E  S
--------------------------------------|--------------------------------------|
--------------------------------------|--8-----8------8----8-----7-----------|
--4-----4------4----4-----4-----------|---------------------------------7----|
---------------------------------2----|--------------------------------------|
--------------------------------------|--------------------------------------|
--------------------------------------|--------------------------------------|


  |--3--|  3   |-3| |--3--|  3   |-3|    |--3--|  3   |-3| |--3--|  3   |-3|
  E  E  E  E.  E  S E  E  E  E.  E  S    E  E  E  E.  E  S E  E  E  E.  E  S
--------------------------------------|--------------------------------------|
--5-----5------5----5-----8------7----|--5-----5------5----5-----------------|
--------------------------------------|--------------------------5------5----|
--------------------------------------|--------------------------------------|
--------------------------------------|--------------------------------------|
--------------------------------------|--------------------------------------|


  |--3--|  3   |-3| |--3--|  3   |-3|    |--3--|  3   |-3| |--3--|  3   |-3|
  E  E  E  E.  E  S E  E  E  E.  E  S    E  E  E  E.  E  S E  E  E  E.  E  S
--------------------------------------|--------------------------------------|
--------------------------------------|--8-----8------8----8-----7-----------|
--4-----4------4----4-----4-----------|---------------------------------7----|
---------------------------------2----|--------------------------------------|
--------------------------------------|--------------------------------------|
--------------------------------------|--------------------------------------|


  |--3--|  3   |-3| |--3--|  3   |-3|    |--3--|  3   |-3| |--3--|  3   |-3|
  E  E  E  E.  E  S E  E  E  E.  E  S    E  E  E  E.  E  S E  E  E  E.  E  S
--------------------------------------|--------------------------------------|
--5-----5------5----5-----8------7----|--5-----5------5----5-----------------|
--------------------------------------|--------------------------5------5----|
--------------------------------------|--------------------------------------|
--------------------------------------|--------------------------------------|
--------------------------------------|--------------------------------------|


  |--3--|  3   |-3| 3               |----3----|    |----3----|
  E  E  E  E.  E  S H.              Q    Q    Q    Q    Q    Q
---------------------------------|--------------------------------|
---------------------------------|--------------------------------|
--4-----4------4----4------------|--------------------------------|
---------------------------------|--2----2----2----2--------------|
---------------------------------|--2----2----2----2--------------|
---------------------------------|--2----2----2----2--------------|


       |--3-|  |----3----|       |----3----|    |----3----|
  Q    Q    E  Q    Q    Q       Q    Q    Q    Q    Q    Q
------------------------------|--------------------------------|
------------------------------|--------------------------------|
------------------------------|--------------------------------|
-------2-------2----2----2----|--2----2----2----2--------------|
-------2-------2----2----2----|--2----2----2----2--------------|
-------2-------2----2----2----|--2----2----2----2--------------|


       |--3-|  |----3----|       |--3-|  |----3----|    3
  Q    Q    E  Q    Q    Q       Q    E  Q    Q    Q    Q.
------------------------------|--------------------------------|
------------------------------|--------------------------------|
------------------------------|--------------------------------|
-------2-------2----2----2----|--2-------2---------------------|
-------2-------2----2----2----|--2-------2---------------------|
-------2-------2----2----2----|--2-------2---------------------|


       |--3-|  |----3----|       |----3----|    |----3----|
  Q    Q    E  Q    Q    Q       Q    Q    Q    Q    Q    Q
------------------------------|--------------------------------|
------------------------------|--------------------------------|
------------------------------|--5----5----5----5--------------|
-------2-------2----2----2----|--5----5----5----5--------------|
-------2-------2----2----2----|--3----3----3----3--------------|
-------2-------2----2----2----|--------------------------------|


  |----3----|    |----3----|       |----3----|    |----3----|
  Q    Q    Q    Q    Q    Q       Q    Q    Q    Q    Q    Q
--------------------------------|--------------------------------|
--7----7----7----7--------------|--------------------------------|
--5----5----5----5--------------|--------------------------------|
--7----7----7----7--------------|--2----2----2----2--------------|
--6----6----6----6--------------|--2----2----2----2--------------|
--------------------------------|--2----2----2----2--------------|


       |--3-|  |----3----|       |----3----|    |----3----|
  Q    Q    E  Q    Q    Q       Q    Q    Q    Q    Q    Q
------------------------------|--------------------------------|
------------------------------|--------------------------------|
------------------------------|--------------------------------|
-------2-------2----2----2----|--2----2----2----2--------------|
-------2-------2----2----2----|--2----2----2----2--------------|
-------2-------2----2----2----|--2----2----2----2--------------|


       |--3-|  |----3----|       |--3-|  |----3----|    3
  Q    Q    E  Q    Q    Q       Q    E  Q    Q    Q    Q.
------------------------------|--------------------------------|
------------------------------|--------------------------------|
------------------------------|--------------------------------|
-------2-------2----2----2----|--2-------2---------------------|
-------2-------2----2----2----|--2-------2---------------------|
-------2-------2----2----2----|--2-------2---------------------|


       |--3-|  |----3----|       |----3----|    |----3----|
  Q    Q    E  Q    Q    Q       Q    Q    Q    Q    Q    Q
------------------------------|--------------------------------|
------------------------------|--------------------------------|
------------------------------|--5----5----5----5--------------|
-------2-------2----2----2----|--5----5----5----5--------------|
-------2-------2----2----2----|--3----3----3----3--------------|
-------2-------2----2----2----|--------------------------------|


  |----3----|    |----3----|       |----3----|    |----3----|
  Q    Q    Q    Q    Q    Q       Q    Q    Q    Q    Q    Q
--------------------------------|--------------------------------|
--7----7----7----7--------------|--------------------------------|
--5----5----5----5--------------|--------------------------------|
--7----7----7----7--------------|--5----5----5----5--------------|
--6----6----6----6--------------|--5----5----5----5--------------|
--------------------------------|--5----5----5----5--------------|


       |--3-|  |----3----|       |----3----|    |----3----|
  Q    Q    E  Q    Q    Q       Q    Q    Q    Q    Q    Q
------------------------------|--------------------------------|
------------------------------|--7----7----7----7--------------|
------------------------------|--7----7----7----7--------------|
-------5-------5----5----5----|--7----7----7----7--------------|
-------5-------5----5----5----|--5----5----5----5--------------|
-------5-------5----5----5----|--------------------------------|


       |--3-|  |----3----|       |----3----|    |----3----|
  Q    Q    E  Q    Q    Q       Q    Q    Q    Q    Q    Q
------------------------------|--------------------------------|
-------7-------7----7----7----|--8----8----8----5--------------|
-------5-------5----5----5----|--9----9----9----5--------------|
-------7-------7----7----7----|--9----9----9----5--------------|
-------6-------6----6----6----|--7----7----7----3--------------|
------------------------------|--------------------------------|


       |--3-|  |----3----|       |----3----|    |----3----|
  Q    Q    E  Q    Q    Q       Q    Q    Q    Q    Q    Q
------------------------------|--------------------------------|
-------5-------7----7----7----|--8----8----8----5--------------|
-------5-------5----5----5----|--9----9----9----5--------------|
-------5-------7----7----7----|--9----9----9----5--------------|
-------3-------6----6----6----|--7----7----7----3--------------|
------------------------------|--------------------------------|


       |--3-|  |----3----|       |--3-|  |--3-|  |--3-|  |--3-|
  Q    Q    E  Q    Q    Q       Q    E  Q    E  Q    E  Q    E
------------------------------|----------------------------------|
-------5-------7----7----7----|--8-------8-------5-------5-------|
-------5-------7----7----7----|--9-------9-------5-------5-------|
-------5-------7----7----7----|--9-------9-------5-------5-------|
-------3-------5----5----5----|--7-------7-------3-------3-------|
------------------------------|----------------------------------|


  |--3-|  |--3-|  |--3-|  |--3-|     |--3-|  |--3-|  |--3-|  |--3-|
  Q    E  Q    E  Q    E  Q    E     Q    E  Q    E  Q    E  Q    E
----------------------------------|----------------------------------|
--5-------5-------7-------7-------|--8-------8-------5-------5-------|
--5-------5-------7-------5-------|--9-------9-------5-------5-------|
--5-------5-------7-------7-------|--9-------9-------5-------5-------|
--3-------3-------5-------6-------|--7-------7-------3-------3-------|
----------------------------------|----------------------------------|


  |--3-|  |--3-|  |--3-|  |--3-|     |--3-|  |--3-|  |--3-|  |--3-|
  Q    E  Q    E  Q    E  Q    E     Q    E  Q    E  Q    E  Q    E
----------------------------------|----------------------------------|
--5-------5-------7-------7-------|--8-------8-------5-------5-------|
--5-------5-------7-------5-------|--9-------9-------5-------5-------|
--5-------5-------7-------7-------|--9-------9-------5-------5-------|
--3-------3-------5-------6-------|--7-------7-------3-------3-------|
----------------------------------|----------------------------------|


  |--3-|  |--3-|  |--3-|  |--3-|     |--3-|  |--3-|  |--3-|  |--3-|
  Q    E  Q    E  Q    E  Q    E     Q    E  Q    E  Q    E  Q    E
----------------------------------|----------------------------------|
--5-------5-------7-------7-------|--8-------8-------5-------5-------|
--5-------5-------7-------5-------|--9-------9-------5-------5-------|
--5-------5-------7-------7-------|--9-------9-------5-------5-------|
--3-------3-------5-------6-------|--7-------7-------3-------3-------|
----------------------------------|----------------------------------|


  |--3-|  |--3-|  |--3-|  |--3-|     |----3----|    |----3----|
  Q    E  Q    E  Q    E  Q    E     Q    Q    Q    Q    Q    Q
----------------------------------|--------------------------------||
--5-------5-------7-------7-------|--------------------------------||
--5-------5-------7-------5-------|--------------------------------||
--5-------5-------7-------7-------|--2----2----2----2--------------||
--3-------3-------5-------6-------|--2----2----2----2--------------||
----------------------------------|--2----2----2----2--------------||

Guitar 2

      |---3--|  3   |-3| |---3--|  3   |-3|
      E  E   E  E.  E  S E  E   E  E.  E  S
D#||----------------------------------------|
A#||----------------------------------------|
F#||--9-----12------9----8-----11------8----|
C#||----------------------------------------|
G#||----------------------------------------|
C#||----------------------------------------|


  |---3--|  3   |-3|  |---3--|  3    |-3|    |----3----|    |----3----|
  E  E   E  E.  E  S  E  E   E  E.   E  S    Q    Q    Q    Q    Q    Q
------------------------------------------|--------------------------------|
------------------------------------------|--------------------------------|
--9-----12------9----11-----14------11----|--------------------------------|
------------------------------------------|--2-----------------------------|
------------------------------------------|--2-----------------------------|
------------------------------------------|--2-----------------------------|


                      |----3----|    |----3----|
  W                   Q    Q    Q    Q    Q    Q       W
-------------------|--------------------------------|-------------------|
-------------------|--------------------------------|-------------------|
-------------------|--------------------------------|-------------------|
-------------------|--2-----------------------------|-------------------|
-------------------|--2-----------------------------|-------------------|
-------------------|--2-----------------------------|-------------------|


  |----3----|
  Q    Q    Q    Q    Q       W
---------------------------|-------------------|
---------------------------|-------------------|
---------------------------|-------------------|
--2----2----2--------------|-------------------|
--2----2----2--------------|-------------------|
--2----2----2--------------|-------------------|


  |----3----|    |----3----|
  Q    Q    Q    Q    Q    Q       W                   W
--------------------------------|-------------------|-------------------|
--------------------------------|-------------------|-------------------|
--------------------------------|-------------------|--5----------------|
--2-----------------------------|-------------------|--5----------------|
--2-----------------------------|-------------------|--3----------------|
--2-----------------------------|-------------------|-------------------|


                      |--3--|  3   |-3| |--3--|  3   |-3|
  W                   E  E  E  E.  E  S E  E  E  E.  E  S
-------------------|--------------------------------------|
-------------------|--------------------------------------|
--2----------------|--------------------------------------|
--2----------------|--2-----2------2----2-----2------2----|
--0----------------|--------------------------------------|
-------------------|--------------------------------------|


  |--3--|  3   |-3| |--3--|  3   |-3|
  E  E  E  E.  E  S E  E  E  E.  E  S    W                   W
--------------------------------------|-------------------|-------------------|
--------------------------------------|-------------------|-------------------|
--------------------------------------|--5----------------|--2----------------|
--2-----2------2----2-----2------2----|--5----------------|--2----------------|
--------------------------------------|--3----------------|--0----------------|
--------------------------------------|-------------------|-------------------|


  |--3--|  3   |-3| |--3--|  3   |-3|    |--3--|  3   |-3| |--3--|  3   |-3|
  E  E  E  E.  E  S E  E  E  E.  E  S    E  E  E  E.  E  S E  E  E  E.  E  S
--------------------------------------|--------------------------------------|
--------------------------------------|--------------------------------------|
--------------------------------------|--------------------------------------|
--5-----5------5----5-----5------5----|--5-----5------5----4-----4------4----|
--------------------------------------|--------------------------------------|
--------------------------------------|--------------------------------------|


  W                   W                   W                   W
-------------------|-------------------|-------------------|-------------------|
-------------------|-------------------|-------------------|--7----------------|
-------------------|-------------------|--7----------------|--5----------------|
--5----------------|--L----------------|--7----------------|--7----------------|
--5----------------|--L----------------|--5----------------|--6----------------|
--5----------------|--L----------------|-------------------|-------------------|


  W                   W                   W                   W
-------------------|-------------------|-------------------|-------------------|
-------------------|-------------------|-------------------|-------------------|
-------------------|-------------------|-------------------|-------------------|
-------------------|-------------------|-------------------|-------------------|
-------------------|-------------------|-------------------|-------------------|
-------------------|-------------------|-------------------|-------------------|


  W                   W                   W                   W
-------------------|-------------------|-------------------|-------------------|
-------------------|-------------------|-------------------|--7----------------|
-------------------|-------------------|--7----------------|--5----------------|
--5----------------|--L----------------|--7----------------|--7----------------|
--5----------------|--L----------------|--5----------------|--6----------------|
--5----------------|--L----------------|-------------------|-------------------|


                      |--3--|  3   |-3| |--3--|  3   |-3|
  W                   E  E  E  E.  E  S E  E  E  E.  E  S
-------------------|--------------------------------------|
-------------------|--5-----5------5----5-----4-----------|
-------------------|---------------------------------5----|
-------------------|--------------------------------------|
-------------------|--------------------------------------|
-------------------|--------------------------------------|


  |--3--|  3   |-3| |--3--|  3   |-3|    |--3--|  3   |-3| |--3--|  3   |-3|
  E  E  E  E.  E  S E  E  E  E.  E  S    E  E  E  E.  E  S E  E  E  E.  E  S
--------------------------------------|--------------------------------------|
--------------------------4-----------|--------------------------------------|
--4-----4------4----4------------5----|--4-----4------4----4-----2------4----|
--------------------------------------|--------------------------------------|
--------------------------------------|--------------------------------------|
--------------------------------------|--------------------------------------|


  |--3--|  3   |-3| |--3--|  3   |-3|    |--3--|  3   |-3| |--3--|  3   |-3|
  E  E  E  E.  E  S E  E  E  E.  E  S    E  E  E  E.  E  S E  E  E  E.  E  S
--------------------------------------|--------------------------------------|
--------------------------------------|--5-----5------5----5-----4-----------|
--1-----1------1----1-----1-----------|---------------------------------5----|
---------------------------------2----|--------------------------------------|
--------------------------------------|--------------------------------------|
--------------------------------------|--------------------------------------|


  |--3--|  3   |-3| |--3--|  3   |-3|    |--3--|  3   |-3| |--3--|  3   |-3|
  E  E  E  E.  E  S E  E  E  E.  E  S    E  E  E  E.  E  S E  E  E  E.  E  S
--------------------------------------|--------------------------------------|
--------------------------4-----------|--------------------------------------|
--4-----4------4----4------------5----|--4-----4------4----4-----2------4----|
--------------------------------------|--------------------------------------|
--------------------------------------|--------------------------------------|
--------------------------------------|--------------------------------------|


  |--3--|  3   |-3| |--3--|  3   |-3|
  E  E  E  E.  E  S E  E  E  E.  E  S    W
--------------------------------------|-------------------|
--------------------------------------|-------------------|
--1-----1------1----1-----1-----------|-------------------|
---------------------------------2----|-------------------|
--------------------------------------|-------------------|
--------------------------------------|-------------------|


  |-----3----|    |-----3----|
  Q     Q    Q    Q     Q    Q       W
----------------------------------|-------------------|
----------------------------------|-------------------|
--9----12----9----8----11----8----|-------------------|
----------------------------------|-------------------|
----------------------------------|-------------------|
----------------------------------|-------------------|


  |-----3----|     |-----3-----|
  Q     Q    Q     Q     Q     Q       W
------------------------------------|-------------------|
------------------------------------|-------------------|
--9----12----9----11----14----11----|-------------------|
------------------------------------|-------------------|
------------------------------------|-------------------|
------------------------------------|-------------------|


   |-----3-----|     |-----3-----|
   Q     Q     Q     Q     Q     Q       W
--------------------------------------|-------------------|
--------------------------------------|-------------------|
--12----16----12----11----14----11----|-------------------|
--------------------------------------|-------------------|
--------------------------------------|-------------------|
--------------------------------------|-------------------|


   |-----3-----|      |-----3-----|
   Q     Q     Q      Q     Q     Q       W                   W
---------------------------------------|-------------------|-------------------|
--------------------/13----16----13----|-------------------|-------------------|
--11----14----11-----------------------|--5----------------|--2----------------|
---------------------------------------|--5----------------|--2----------------|
---------------------------------------|--3----------------|--0----------------|
---------------------------------------|-------------------|-------------------|


  |--3--|  3   |-3| |--3--|  3   |-3|    |--3--|  3   |-3| |--3--|  3   |-3|
  E  E  E  E.  E  S E  E  E  E.  E  S    E  E  E  E.  E  S E  E  E  E.  E  S
--------------------------------------|--------------------------------------|
--------------------------------------|--------------------------------------|
--------------------------------------|--------------------------------------|
--2-----2------2----2-----2------2----|--2-----2------2----2-----2------2----|
--------------------------------------|--------------------------------------|
--------------------------------------|--------------------------------------|


                                          PM    PM     PM   PM    PM     PM
                                          |--3--|  3   |-3| |--3--|  3   |-3|
  W                   W                   E  E  E  E.  E  S E  E  E  E.  E  S
-------------------|-------------------|--------------------------------------|
-------------------|-------------------|--------------------------------------|
--5----------------|--2----------------|--------------------------------------|
--5----------------|--2----------------|--5-----5------5----5-----5------5----|
--3----------------|--0----------------|--------------------------------------|
-------------------|-------------------|--------------------------------------|


  PM    PM     PM   PM    PM     PM
  |--3--|  3   |-3| |--3--|  3   |-3|
  E  E  E  E.  E  S E  E  E  E.  E  S    W                   W
--------------------------------------|-------------------|-------------------|
--------------------------------------|-------------------|-------------------|
--------------------------------------|-------------------|-------------------|
--5-----5------5----4-----4------4----|--5----------------|--L----------------|
--------------------------------------|--5----------------|--L----------------|
--------------------------------------|--5----------------|--L----------------|


  W                   W
-------------------|-------------------|
-------------------|--7----------------|
--7----------------|--5----------------|
--7----------------|--7----------------|
--5----------------|--6----------------|
-------------------|-------------------|


  |---3--|  3   |-3| |---3--|  3   |-3|
  E  E   E  E.  E  S E  E   E  E.  E  S
----------------------------------------|
----------------------------------------|
--9-----12------9----8-----11------8----|
----------------------------------------|
----------------------------------------|
----------------------------------------|


  |---3--|  3   |-3|  |---3--|  3    |-3|
  E  E   E  E.  E  S  E  E   E  E.   E  S
------------------------------------------|
------------------------------------------|
--9-----12------9----11-----14------11----|
------------------------------------------|
------------------------------------------|
------------------------------------------|


  |---3--|  3   |-3| |---3--|  3   |-3|
  E  E   E  E.  E  S E  E   E  E.  E  S
----------------------------------------|
----------------------------------------|
--9-----12------9----8-----11------8----|
----------------------------------------|
----------------------------------------|
----------------------------------------|


  |---3--|  3   |-3|  |---3--|  3    |-3|
  E  E   E  E.  E  S  E  E   E  E.   E  S    W
------------------------------------------|-------------------|
------------------------------------------|-------------------|
--9-----12------9----11-----14------11----|-------------------|
------------------------------------------|--5----------------|
------------------------------------------|--5----------------|
------------------------------------------|--5----------------|


  W                   W                   W                   W
-------------------|-------------------|-------------------|-------------------|
-------------------|-------------------|--7----------------|-------------------|
-------------------|--7----------------|--5----------------|-------------------|
--L----------------|--7----------------|--7----------------|-------------------|
--L----------------|--5----------------|--6----------------|-------------------|
--L----------------|-------------------|-------------------|-------------------|


  |--3--|  3   |-3| |--3--|  3   |-3|    |--3--|  3   |-3| |--3--|  3   |-3|
  E  E  E  E.  E  S E  E  E  E.  E  S    E  E  E  E.  E  S E  E  E  E.  E  S
--------------------------------------|--------------------------------------|
--5-----5------5----5-----4-----------|--------------------------4-----------|
---------------------------------5----|--4-----4------4----4------------5----|
--------------------------------------|--------------------------------------|
--------------------------------------|--------------------------------------|
--------------------------------------|--------------------------------------|


  |--3--|  3   |-3| |--3--|  3   |-3|    |--3--|  3   |-3| |--3--|  3   |-3|
  E  E  E  E.  E  S E  E  E  E.  E  S    E  E  E  E.  E  S E  E  E  E.  E  S
--------------------------------------|--------------------------------------|
--------------------------------------|--------------------------------------|
--4-----4------4----4-----2------4----|--1-----1------1----1-----1-----------|
--------------------------------------|---------------------------------2----|
--------------------------------------|--------------------------------------|
--------------------------------------|--------------------------------------|


  |--3--|  3   |-3| |--3--|  3   |-3|    |--3--|  3   |-3| |--3--|  3   |-3|
  E  E  E  E.  E  S E  E  E  E.  E  S    E  E  E  E.  E  S E  E  E  E.  E  S
--------------------------------------|--------------------------------------|
--5-----5------5----5-----4-----------|--------------------------4-----------|
---------------------------------5----|--4-----4------4----4------------5----|
--------------------------------------|--------------------------------------|
--------------------------------------|--------------------------------------|
--------------------------------------|--------------------------------------|


  |--3--|  3   |-3| |--3--|  3   |-3|    |--3--|  3   |-3| |--3--|  3   |-3|
  E  E  E  E.  E  S E  E  E  E.  E  S    E  E  E  E.  E  S E  E  E  E.  E  S
--------------------------------------|--------------------------------------|
--------------------------------------|--------------------------------------|
--4-----4------4----4-----2------4----|--1-----1------1----1-----1-----------|
--------------------------------------|---------------------------------2----|
--------------------------------------|--------------------------------------|
--------------------------------------|--------------------------------------|


  |--3--|  3   |-3| |--3--|  3   |-3|    |--3--|  3   |-3| |--3--|  3   |-3|
  E  E  E  E.  E  S E  E  E  E.  E  S    E  E  E  E.  E  S E  E  E  E.  E  S
--------------------------------------|--------------------------------------|
--5-----5------5----5-----4-----------|--------------------------4-----------|
---------------------------------5----|--4-----4------4----4------------5----|
--------------------------------------|--------------------------------------|
--------------------------------------|--------------------------------------|
--------------------------------------|--------------------------------------|


  |--3--|  3   |-3| |--3--|  3   |-3|    |--3--|  3   |-3| |--3--|  3   |-3|
  E  E  E  E.  E  S E  E  E  E.  E  S    E  E  E  E.  E  S E  E  E  E.  E  S
--------------------------------------|--------------------------------------|
--------------------------------------|--------------------------------------|
--4-----4------4----4-----2------4----|--1-----1------1----1-----1-----------|
--------------------------------------|---------------------------------2----|
--------------------------------------|--------------------------------------|
--------------------------------------|--------------------------------------|


  |--3--|  3   |-3| |--3--|  3   |-3|    |--3--|  3   |-3| |--3--|  3   |-3|
  E  E  E  E.  E  S E  E  E  E.  E  S    E  E  E  E.  E  S E  E  E  E.  E  S
--------------------------------------|--------------------------------------|
--5-----5------5----5-----4-----------|--------------------------4-----------|
---------------------------------5----|--4-----4------4----4------------5----|
--------------------------------------|--------------------------------------|
--------------------------------------|--------------------------------------|
--------------------------------------|--------------------------------------|


  |--3--|  3   |-3| |--3--|  3   |-3|    |--3--|  3   |-3| 3
  E  E  E  E.  E  S E  E  E  E.  E  S    E  E  E  E.  E  S H.
--------------------------------------|---------------------------------|
--------------------------------------|---------------------------------|
--4-----4------4----4-----2------4----|--1-----1------1----1------------|
--------------------------------------|---------------------------------|
--------------------------------------|---------------------------------|
--------------------------------------|---------------------------------|


  |----3----|    |----3----|            |--3-|  |----3----|
  Q    Q    Q    Q    Q    Q       Q    Q    E  Q    Q    Q
--------------------------------|------------------------------|
--------------------------------|------------------------------|
--9----9----9----9--------------|-------9-------9----9----9----|
--------------------------------|------------------------------|
--7----7----7----7--------------|-------7-------7----7----7----|
--------------------------------|------------------------------|


  |----3----|    |----3----|            |--3-|  |----3----|
  Q    Q    Q    Q    Q    Q       Q    Q    E  Q    Q    Q
--------------------------------|------------------------------|
--------------------------------|------------------------------|
--9----9----9----9--------------|-------9-------9----9----9----|
--------------------------------|------------------------------|
--7----7----7----7--------------|-------7-------7----7----7----|
--------------------------------|------------------------------|


  |--3-|  |----3----|    3              |--3-|  |----3----|
  Q    E  Q    Q    Q    Q.        Q    Q    E  Q    Q    Q
--------------------------------|------------------------------|
--------------------------------|------------------------------|
--9-------9---------------------|-------9-------9----9----9----|
--------------------------------|------------------------------|
--7-------7---------------------|-------7-------7----7----7----|
--------------------------------|------------------------------|


  |----3----|    |----3----|       |----3----|    |----3----|
  Q    Q    Q    Q    Q    Q       Q    Q    Q    Q    Q    Q
--------------------------------|--------------------------------|
--------------------------------|--------------------------------|
--5----5----5----5--------------|--8----8----8----8--------------|
--------------------------------|--------------------------------|
--3----3----3----3--------------|--6----6----6----6--------------|
--------------------------------|--------------------------------|


  |----3----|    |----3----|            |--3-|  |----3----|
  Q    Q    Q    Q    Q    Q       Q    Q    E  Q    Q    Q
--------------------------------|------------------------------|
--------------------------------|------------------------------|
--9----9----9----9--------------|-------9-------9----9----9----|
--------------------------------|------------------------------|
--7----7----7----7--------------|-------7-------7----7----7----|
--------------------------------|------------------------------|


  |----3----|    |----3----|            |--3-|  |----3----|
  Q    Q    Q    Q    Q    Q       Q    Q    E  Q    Q    Q
--------------------------------|------------------------------|
--------------------------------|------------------------------|
--9----9----9----9--------------|-------9-------9----9----9----|
--------------------------------|------------------------------|
--7----7----7----7--------------|-------7-------7----7----7----|
--------------------------------|------------------------------|


  |--3-|  |----3----|    3              |--3-|  |----3----|
  Q    E  Q    Q    Q    Q.        Q    Q    E  Q    Q    Q
--------------------------------|------------------------------|
--------------------------------|------------------------------|
--9-------9---------------------|-------9-------9----9----9----|
--------------------------------|------------------------------|
--7-------7---------------------|-------7-------7----7----7----|
--------------------------------|------------------------------|


  |----3----|    |----3----|       |----3----|    |----3----|
  Q    Q    Q    Q    Q    Q       Q    Q    Q    Q    Q    Q
--------------------------------|--------------------------------|
--------------------------------|--------------------------------|
--5----5----5----5--------------|--8----8----8----8--------------|
--------------------------------|--------------------------------|
--3----3----3----3--------------|--6----6----6----6--------------|
--------------------------------|--------------------------------|


   |-----3-----|     |----3----|             |--3-|   |-----3-----|
   Q     Q     Q     Q    Q    Q       Q     Q    E   Q     Q     Q
------------------------------------|----------------------------------|
------------------------------------|----------------------------------|
--12----12----12----12--------------|-------12-------12----12----12----|
------------------------------------|----------------------------------|
--10----10----10----10--------------|-------10-------10----10----10----|
------------------------------------|----------------------------------|


   |-----3-----|     |----3----|             |--3-|   |-----3-----|
   Q     Q     Q     Q    Q    Q       Q     Q    E   Q     Q     Q
------------------------------------|----------------------------------|
------------------------------------|----------------------------------|
--11----11----11----11--------------|-------11-------11----11----11----|
------------------------------------|----------------------------------|
---9-----9-----9-----9--------------|--------9--------9-----9-----9----|
------------------------------------|----------------------------------|


   |-----3-----|    |----3----|            |--3-|   |-----3-----|
   Q     Q     Q    Q    Q    Q       Q    Q    E   Q     Q     Q
-----------------------------------|---------------------------------|
-----------------------------------|---------------------------------|
--12----12----12----9--------------|-------9-------11----11----11----|
-----------------------------------|---------------------------------|
--10----10----10----7--------------|-------7--------9-----9-----9----|
-----------------------------------|---------------------------------|


   |-----3-----|    |----3----|            |--3-|   |-----3-----|
   Q     Q     Q    Q    Q    Q       Q    Q    E   Q     Q     Q
-----------------------------------|---------------------------------|
-----------------------------------|---------------------------------|
--12----12----12----9--------------|-------9-------11----11----11----|
-----------------------------------|---------------------------------|
--10----10----10----7--------------|-------7--------9-----9-----9----|
-----------------------------------|---------------------------------|


  |--3-|  |--3-|  |--3-|  |--3-|     |--3-|  |--3-|  |--3-|  |--3-|
  Q    E  Q    E  Q    E  Q    E     Q    E  Q    E  Q    E  Q    E
----------------------------------|----------------------------------|
----------------------------------|----------------------------------|
--9-------9-------5-------5-------|--5-------9-------7-------8-------|
----------------------------------|----------------------------------|
--7-------7-------3-------3-------|--3-------7-------5-------6-------|
----------------------------------|----------------------------------|


  |--3-|  |--3-|  |--3-|  |--3-|     |--3-|  |--3-|  |--3-|  |--3-|
  Q    E  Q    E  Q    E  Q    E     Q    E  Q    E  Q    E  Q    E
----------------------------------|----------------------------------|
----------------------------------|----------------------------------|
--9-------9-------5-------5-------|--5-------9-------7-------8-------|
----------------------------------|----------------------------------|
--7-------7-------3-------3-------|--3-------7-------5-------6-------|
----------------------------------|----------------------------------|


  |--3-|  |--3-|  |--3-|  |--3-|     |--3-|  |--3-|  |--3-|  |--3-|
  Q    E  Q    E  Q    E  Q    E     Q    E  Q    E  Q    E  Q    E
----------------------------------|----------------------------------|
----------------------------------|----------------------------------|
--9-------9-------5-------5-------|--5-------9-------7-------8-------|
----------------------------------|----------------------------------|
--7-------7-------3-------3-------|--3-------7-------5-------6-------|
----------------------------------|----------------------------------|


  |--3-|  |--3-|  |--3-|  |--3-|     |--3-|  |--3-|  |--3-|  |--3-|
  Q    E  Q    E  Q    E  Q    E     Q    E  Q    E  Q    E  Q    E
----------------------------------|----------------------------------|
----------------------------------|----------------------------------|
--9-------9-------5-------5-------|--5-------9-------7-------8-------|
----------------------------------|----------------------------------|
--7-------7-------3-------3-------|--3-------7-------5-------6-------|
----------------------------------|----------------------------------|


  |----3----|    |----3----|
  Q    Q    Q    Q    Q    Q
--------------------------------||
--8----8----8----8--------------||
--9----9----9----9--------------||
--9----9----9----9--------------||
--7----7----7----7--------------||
--------------------------------||


Duration Legend
---------------
W - whole
H - half
Q - quarter
E - 8th
S - 16th
T - 32nd
X - 64th
. - note dotted
|-n-|  - n-tuplets


Tablature Legend
----------------
L - tied note
x - dead note
g - grace note
(n) - ghost note
> - accentuded note
NH - natural harmonic
AH - artificial harmonic
TH - tapped harmonic
SH - semi harmonic
PH - pitch harmonic
h - hammer on
p - pull off
b - bend
br - bendRelease
pb - preBend
pbr - preBendRelease
brb - bendReleaseBend
\n/ - tremolo bar dip
\n - tremolo bar dive
-/n - tremolo bar Release up
/n\ - tremolo bar inverted dip
/n - tremolo bar return
-\n - tremolo bar Release down
S - shift slide
s - legato slide
/ -  slide into from below or out of upwards
\ -  slide into from above or out of downwards
~ - vibrato
W - wide vibrato
tr - trill
TP - tremolo picking
T - tapping
S - slap
P - pop
< - fade in
^ - brush up
v - brush down
Добавлено: 15.06.2012
Другие материалы по этой песне:

Страница создана 19.03.2012
http://primanota.ru/kensington/not-as-bright-chords.htm
Привет, Гость.
Предлагаем пройти революционный курс по гитаре.
Подарок от PrimaNota.Ru, забирай!