PrimaNota.ru - самый крупный в мире бесплатный архив песенных текстов, аккордов, табулатур и нот


Kensington - I Was Too Scared - таба, видео

Регистрация Запомнить меня
Войти через:  Facebook Google Twitter Vk Yandex Mail.ru

Kensington - I Was Too Scared - таба, видео

Печатать
Просмотров: 98
                               I Was Too Scared                                 


                                                                      Kensington
Guitar 1



      Q    Q    S S E  Q    Q    S S S S    Q    Q    S S E  Q    Q    S S S S  
D#||------------0-0--------------0-0-0-0-|------------0-0--------------0-0-0-0-|
A#||------------1-1--------------1-1-1-1-|------------1-1--------------1-1-1-1-|
F#||------------2-2--------------2-2-2-2-|------------2-2--------------2-2-2-2-|
C#||------------2-2--------------2-2-2-2-|------------2-2--------------2-2-2-2-|
G#||------------0-0--------------0-0-0-0-|------------0-0--------------0-0-0-0-|
C#||-------------------------------------|-------------------------------------|


  E  E  E  E  E  E  E  E  E  E  E  E     E  E  E  E  E  E  E  E  E  E  E  E   
--0-----0-----0-----0-----0-----0-----|--0-----0-----0-----0-----3-----3-----|
--1-----1-----1-----1-----1-----1-----|--1-----1-----1-----1-----3-----3-----|
--2-----2-----2-----2-----2-----2-----|--2-----2-----2-----2-----5-----5-----|
--2-----2-----2-----2-----2-----2-----|--2-----2-----2-----2-----------------|
--------------------------------------|--------------------------------------|
--------------------------------------|--------------------------------------|


    E  E   E  E   E  E   E  E   E  E   E  E   
--/10-----10-----10-----10-----10-----10-----|
--/12-----12-----12-----12-----12-----12-----|
--/12-----12-----12-----12-----12-----12-----|
---------------------------------------------|
---------------------------------------------|
---------------------------------------------|


   E  E   E  E   E  E   E  E   E  E   E  E   
--10-----10-----10-----10-----10-----10-----|
--10-----10-----10-----10-----10-----10-----|
--12-----12-----12-----11-----11-----10-----|
--------------------------------------------|
--------------------------------------------|
--------------------------------------------|


  E  E  E  E  E  E  E  E  E  E  E  E     E  E  E  E  E  E  E  E  E  E  E  E   
--0-----0-----0-----0-----0-----0-----|--0-----0-----0-----0-----3-----3-----|
--1-----1-----1-----1-----1-----1-----|--1-----1-----1-----1-----3-----3-----|
--2-----2-----2-----2-----2-----2-----|--2-----2-----2-----2-----5-----5-----|
--2-----2-----2-----2-----2-----2-----|--2-----2-----2-----2-----------------|
--------------------------------------|--------------------------------------|
--------------------------------------|--------------------------------------|


    E  E   E  E   E  E   E  E   E  E   E  E   
--/10-----10-----10-----10-----10-----10-----|
--/12-----12-----12-----12-----12-----12-----|
--/12-----12-----12-----12-----12-----12-----|
---------------------------------------------|
---------------------------------------------|
---------------------------------------------|


   E  E   E  E   E  E   E  E   E  E   E  E   
--10-----10-----10-----10-----10-----10-----|
--10-----10-----10-----10-----10-----10-----|
--12-----12-----12-----11-----11-----11-----|
--------------------------------------------|
--------------------------------------------|
--------------------------------------------|


  E  E  E  E  E  E  E  E  E  E  E  E     E  E  E  E  E  E  E  E  E  E  E  E   
--0-----0-----0-----0-----0-----0-----|--0-----0-----0-----0-----3-----3-----|
--1-----1-----1-----1-----1-----1-----|--1-----1-----1-----1-----3-----3-----|
--2-----2-----2-----2-----2-----2-----|--2-----2-----2-----2-----5-----5-----|
--2-----2-----2-----2-----2-----2-----|--2-----2-----2-----2-----------------|
--------------------------------------|--------------------------------------|
--------------------------------------|--------------------------------------|


    E  E   E  E   E  E   E  E   E  E   E  E   
--/10-----10-----10-----10-----10-----10-----|
--/12-----12-----12-----12-----12-----12-----|
--/12-----12-----12-----12-----12-----12-----|
---------------------------------------------|
---------------------------------------------|
---------------------------------------------|


   E  E   E  E   E  E   E  E   E  E   E  E   
--10-----10-----10-----10-----10-----10-----|
--10-----10-----10-----10-----10-----10-----|
--12-----12-----12-----11-----11-----11-----|
--------------------------------------------|
--------------------------------------------|
--------------------------------------------|


  E  E  E  E  E  E  E  E  E  E  E  E     E  E  E  E  E  E  E  E  E  E  E  E   
--0-----0-----0-----0-----0-----0-----|--0-----0-----0-----0-----3-----3-----|
--1-----1-----1-----1-----1-----1-----|--1-----1-----1-----1-----3-----3-----|
--2-----2-----2-----2-----2-----2-----|--2-----2-----2-----2-----5-----5-----|
--2-----2-----2-----2-----2-----2-----|--2-----2-----2-----2-----------------|
--------------------------------------|--------------------------------------|
--------------------------------------|--------------------------------------|


    E  E   E  E   E  E   E  E   E  E   E  E   
--/10-----10-----10-----10-----10-----10-----|
--/12-----12-----12-----12-----12-----12-----|
--/12-----12-----12-----12-----12-----12-----|
---------------------------------------------|
---------------------------------------------|
---------------------------------------------|


   E  E   E  E   E  E   E  E   E  E   E  E   
--10-----10-----10-----10-----10-----10-----|
--10-----10-----10-----10-----10-----10-----|
--12-----12-----12-----11-----11-----11-----|
--------------------------------------------|
--------------------------------------------|
--------------------------------------------|


  E  E  E  E  E  E  E  E  E  E  E  E     E  E  E  E  E  E  E  E  E  E  E  E   
--0-----0-----0-----0-----0-----0-----|--0-----0-----0-----0-----3-----3-----|
--1-----1-----1-----1-----1-----1-----|--1-----1-----1-----1-----3-----3-----|
--2-----2-----2-----2-----2-----2-----|--2-----2-----2-----2-----5-----5-----|
--2-----2-----2-----2-----2-----2-----|--2-----2-----2-----2-----------------|
--------------------------------------|--------------------------------------|
--------------------------------------|--------------------------------------|


    E  E   E  E   E  E   E  E   E  E   E  E   
--/10-----10-----10-----10-----10-----10-----|
--/12-----12-----12-----12-----12-----12-----|
--/12-----12-----12-----12-----12-----12-----|
---------------------------------------------|
---------------------------------------------|
---------------------------------------------|


   E  E   E  E   E  E   E  E   E  E   E  E   
--10-----10-----10-----10-----10-----10-----|
--10-----10-----10-----10-----10-----10-----|
--12-----12-----12-----11-----11-----11-----|
--------------------------------------------|
--------------------------------------------|
--------------------------------------------|


  E  S E  S E  E   E  E  S E  S E   E  E   
------------------------------------------|
------------------------------------------|
------------------------------------------|
---------------7--10---------------10--7--|
--8----8----8---------8----8----8---------|
------------------------------------------|


  E  S E  S E   E  E  E  S E  S E  E   E   
------------------------------------------|
------------------------------------------|
-------------------9---------------7------|
--7----7----7--10-----7----7----7---------|
--------------------------------------10--|
------------------------------------------|


   E  S  E  S  E  E.  S  E  S  E  S  E  E.  S  
----------------------------------------------|
----------------------------------------------|
------------------9---------------------9-----|
----------------------------------------------|
----------------------------------------------|
--10----10----10--------10----10----10--------|


  E  S E  S E  E.  S E  S E  S E  E   E   
-----------------------------------------|
-----------------------------------------|
---------------9------------------9------|
-------------------------------------10--|
--7----7----7--------7----7----7---------|
-----------------------------------------|


  E  S E  S E  E   E  E  S E  S E   E  E   
------------------------------------------|
------------------------------------------|
------------------------------------------|
---------------7--10---------------10--7--|
--8----8----8---------8----8----8---------|
------------------------------------------|


  E  S E  S E   E  E  E  S E  S E  E   E   
------------------------------------------|
------------------------------------------|
-------------------9---------------7------|
--7----7----7--10-----7----7----7---------|
--------------------------------------10--|
------------------------------------------|


   E  S  E  S  E  E.  S  E  S  E  S  E  E.  S  
----------------------------------------------|
----------------------------------------------|
------------------9---------------------9-----|
----------------------------------------------|
----------------------------------------------|
--10----10----10--------10----10----10--------|


  E  S E  S E  E.  S E  S E  S E  E   E   
-----------------------------------------|
-----------------------------------------|
---------------9------------------9------|
-------------------------------------10--|
--7----7----7--------7----7----7---------|
-----------------------------------------|


  E  S E  S E  E   E  E  S E  S E  E.  S  
-----------------------------------------|
------------------10---------------8-----|
---------------9-------------------------|
--7----7----7---------7----7----7--------|
-----------------------------------------|
-----------------------------------------|


  E  S E  S E  E   E  E  S E  S E   E  E   
------------------------------------------|
------------------10---------------10-----|
---------------9-----------------------9--|
--7----7----7---------7----7----7---------|
------------------------------------------|
------------------------------------------|


  E  S E  S E  E   E  E  S E  S E  E.  S  
-----------------------------------------|
------------------10---------------8-----|
---------------9-------------------------|
--7----7----7---------7----7----7--------|
-----------------------------------------|
-----------------------------------------|


  E  S E  S E  E   E  E  S E  S E   E  E   
------------------------------------------|
------------------10---------------10-----|
---------------9-----------------------9--|
--7----7----7---------7----7----7---------|
------------------------------------------|
------------------------------------------|


  E  E  E  E  E  E  E  E  E  E  E  E     E  E  E  E  E  E  E  E  E  E  E  E   
--0-----0-----0-----0-----0-----0-----|--0-----0-----0-----0-----3-----3-----|
--1-----1-----1-----1-----1-----1-----|--1-----1-----1-----1-----3-----3-----|
--2-----2-----2-----2-----2-----2-----|--2-----2-----2-----2-----5-----5-----|
--2-----2-----2-----2-----2-----2-----|--2-----2-----2-----2-----------------|
--------------------------------------|--------------------------------------|
--------------------------------------|--------------------------------------|


    E  E   E  E   E  E   E  E   E  E   E  E   
--/10-----10-----10-----10-----10-----10-----|
--/12-----12-----12-----12-----12-----12-----|
--/12-----12-----12-----12-----12-----12-----|
---------------------------------------------|
---------------------------------------------|
---------------------------------------------|


   E  E   E  E   E  E   E  E   E  E   E  E   
--10-----10-----10-----10-----10-----10-----|
--10-----10-----10-----10-----10-----10-----|
--12-----12-----12-----11-----11-----11-----|
--------------------------------------------|
--------------------------------------------|
--------------------------------------------|


  E  E  E  E  E  E  E  E  E  E  E  E     E  E  E  E  E  E  E  E  E  E  E  E   
--0-----0-----0-----0-----0-----0-----|--0-----0-----0-----0-----3-----3-----|
--1-----1-----1-----1-----1-----1-----|--1-----1-----1-----1-----3-----3-----|
--2-----2-----2-----2-----2-----2-----|--2-----2-----2-----2-----5-----5-----|
--2-----2-----2-----2-----2-----2-----|--2-----2-----2-----2-----------------|
--------------------------------------|--------------------------------------|
--------------------------------------|--------------------------------------|


    E  E   E  E   E  E   E  E   E  E   E  E   
--/10-----10-----10-----10-----10-----10-----|
--/12-----12-----12-----12-----12-----12-----|
--/12-----12-----12-----12-----12-----12-----|
---------------------------------------------|
---------------------------------------------|
---------------------------------------------|


   E  E   E  E   E  E   E  E   E  E   E  E   
--10-----10-----10-----10-----10-----10-----|
--10-----10-----10-----10-----10-----10-----|
--12-----12-----12-----11-----11-----11-----|
--------------------------------------------|
--------------------------------------------|
--------------------------------------------|


  E  E  E  E  E  E  E  E  E  E  E  E     E  E  E  E  E  E  E  E  E  E  E  E   
--0-----0-----0-----0-----0-----0-----|--0-----0-----0-----0-----3-----3-----|
--1-----1-----1-----1-----1-----1-----|--1-----1-----1-----1-----3-----3-----|
--2-----2-----2-----2-----2-----2-----|--2-----2-----2-----2-----5-----5-----|
--2-----2-----2-----2-----2-----2-----|--2-----2-----2-----2-----------------|
--------------------------------------|--------------------------------------|
--------------------------------------|--------------------------------------|


    E  E   E  E   E  E   E  E   E  E   E  E   
--/10-----10-----10-----10-----10-----10-----|
--/12-----12-----12-----12-----12-----12-----|
--/12-----12-----12-----12-----12-----12-----|
---------------------------------------------|
---------------------------------------------|
---------------------------------------------|


   E  E   E  E   E  E   E  E   E  E   E  E   
--10-----10-----10-----10-----10-----10-----|
--10-----10-----10-----10-----10-----10-----|
--12-----12-----12-----11-----11-----11-----|
--------------------------------------------|
--------------------------------------------|
--------------------------------------------|


  E  E  E  E  E  E  E  E  E  E  E  E     E  E  E  E  E  E  E  E  E  E  E  E   
--0-----0-----0-----0-----0-----0-----|--0-----0-----0-----0-----3-----3-----|
--1-----1-----1-----1-----1-----1-----|--1-----1-----1-----1-----3-----3-----|
--2-----2-----2-----2-----2-----2-----|--2-----2-----2-----2-----5-----5-----|
--2-----2-----2-----2-----2-----2-----|--2-----2-----2-----2-----------------|
--------------------------------------|--------------------------------------|
--------------------------------------|--------------------------------------|


    E  E   E  E   E  E   E  E   E  E   E  E   
--/10-----10-----10-----10-----10-----10-----|
--/12-----12-----12-----12-----12-----12-----|
--/12-----12-----12-----12-----12-----12-----|
---------------------------------------------|
---------------------------------------------|
---------------------------------------------|


   E  E   E  E   E  E   E  E   E  E   E  E   
--10-----10-----10-----10-----10-----10-----|
--10-----10-----10-----10-----10-----10-----|
--12-----12-----12-----11-----11-----11-----|
--------------------------------------------|
--------------------------------------------|
--------------------------------------------|


  E  S E  S E  E   E  E  S E  S E   E  E   
------------------------------------------|
------------------------------------------|
------------------------------------------|
---------------7--10---------------10--7--|
--8----8----8---------8----8----8---------|
------------------------------------------|


  E  S E  S E   E  E  E  S E  S E  E   E   
------------------------------------------|
------------------------------------------|
-------------------9---------------7------|
--7----7----7--10-----7----7----7---------|
--------------------------------------10--|
------------------------------------------|


   E  S  E  S  E  E.  S  E  S  E  S  E  E.  S  
----------------------------------------------|
----------------------------------------------|
------------------9---------------------9-----|
----------------------------------------------|
----------------------------------------------|
--10----10----10--------10----10----10--------|


  E  S E  S E  E.  S E  S E  S E  E   E   
-----------------------------------------|
-----------------------------------------|
---------------9------------------9------|
-------------------------------------10--|
--7----7----7--------7----7----7---------|
-----------------------------------------|


  E  S E  S E  E   E  E  S E  S E   E  E   
------------------------------------------|
------------------------------------------|
------------------------------------------|
---------------7--10---------------10--7--|
--8----8----8---------8----8----8---------|
------------------------------------------|


  E  S E  S E   E  E  E  S E  S E  E   E   
------------------------------------------|
------------------------------------------|
-------------------9---------------7------|
--7----7----7--10-----7----7----7---------|
--------------------------------------10--|
------------------------------------------|


   E  S  E  S  E  E.  S  E  S  E  S  E  E.  S  
----------------------------------------------|
----------------------------------------------|
------------------9---------------------9-----|
----------------------------------------------|
----------------------------------------------|
--10----10----10--------10----10----10--------|


  E  S E  S E  E.  S E  S E  S E  E   E   
-----------------------------------------|
-----------------------------------------|
---------------9------------------9------|
-------------------------------------10--|
--7----7----7--------7----7----7---------|
-----------------------------------------|


  E  S E  S E  E   E  E  S E  S E  E.  S  
-----------------------------------------|
------------------10---------------8-----|
---------------9-------------------------|
--7----7----7---------7----7----7--------|
-----------------------------------------|
-----------------------------------------|


  E  S E  S E  E   E  E  S E  S E   E   E   
-------------------------------------------|
------------------10---------------10------|
---------------9-----------------------10--|
--7----7----7---------7----7----7----------|
-------------------------------------------|
-------------------------------------------|


  E  S E  S E  E.  S E  S E  S E  E.  S  
----------------------------------------|
----------------------------------------|
--7----7----7--9-----7----7----7--9-----|
----------------------------------------|
----------------------------------------|
----------------------------------------|


  E  S E  S E  E.  S E  S E  S E  E.  S  
----------------------------------------|
----------------------------------------|
--7----7----7--9-----7----7----7--9-----|
----------------------------------------|
----------------------------------------|
----------------------------------------|


  E  S E  S E  E   E  E  S E  S E  E.  S  
-----------------------------------------|
------------------10---------------8-----|
---------------9-------------------------|
--7----7----7---------7----7----7--------|
-----------------------------------------|
-----------------------------------------|


  E  S E  S E  E   E  E  S E  S E   E   E   
-------------------------------------------|
------------------10---------------10------|
---------------9-----------------------10--|
--7----7----7---------7----7----7----------|
-------------------------------------------|
-------------------------------------------|


  E  S E  S E  E.  S E  S E  S E  E.  S  
----------------------------------------|
----------------------------------------|
--7----7----7--9-----7----7----7--9-----|
----------------------------------------|
----------------------------------------|
----------------------------------------|


  E  S E  S E  E.  S E  S E  S E  E.  S  
----------------------------------------|
----------------------------------------|
--7----7----7--9-----7----7----7--9-----|
----------------------------------------|
----------------------------------------|
----------------------------------------|


  E  S E  S E  E   E  E  S E  S E   E  E   
------------------------------------------|
------------------------------------------|
------------------------------------------|
---------------7--10---------------10--7--|
--8----8----8---------8----8----8---------|
------------------------------------------|


  E  S E  S E   E  E  E  S E  S E  E   E   
------------------------------------------|
------------------------------------------|
-------------------9---------------7------|
--7----7----7--10-----7----7----7---------|
--------------------------------------10--|
------------------------------------------|


   E  S  E  S  E  E.  S  E  S  E  S  E  E.  S  
----------------------------------------------|
----------------------------------------------|
------------------9---------------------9-----|
----------------------------------------------|
----------------------------------------------|
--10----10----10--------10----10----10--------|


                                            ^                 
  E  S E  S E  E.  S E  S E  S E  E   E     W.                
-----------------------------------------|-------------------|
-----------------------------------------|-------------------|
---------------9------------------9------|-------------------|
-------------------------------------10--|--7----------------|
--7----7----7--------7----7----7---------|--8----------------|
-----------------------------------------|-------------------|


   ^                    ^                    ^                 
   W.                   W.                   W.                
--------------------|--------------------|--------------------|
--------------------|--------------------|--------------------|
--------------------|--------------------|--------------------|
---9----------------|--10----------------|--12----------------|
--12----------------|--10----------------|--12----------------|
--------------------|--10----------------|--12----------------|


  E  S E  S E  E.  S E  S E  S E  E  E   
----------------------------------------|
----------------------------------------|
---------------9------------------9--7--|
--7----7----7--------7----7----7--------|
----------------------------------------|
----------------------------------------|


   E  S  E  S  E  E.  S  E  S  E  S  E  E   E   
-----------------------------------------------|
-----------------------------------------------|
------------------7---------------------7------|
--10----10----10--------10----10----10-----10--|
-----------------------------------------------|
-----------------------------------------------|


  E  S E  S E  E.  S E  S E  S E  E  E   
----------------------------------------|
----------------------------------------|
---------------7------------------7-----|
--9----9----9--------9----9----9-----9--|
----------------------------------------|
----------------------------------------|


  E  S E  S E  E.  S E  S E  S E  E  E   
----------------------------------------|
----------------------------------------|
----------------------------------------|
---------------7------------------7-----|
--9----9----9--------9----9----9-----9--|
----------------------------------------|


  E  S E  S E  E.  S E  S E  S E  E  E   
----------------------------------------|
----------------------------------------|
---------------9------------------9--7--|
--7----7----7--------7----7----7--------|
----------------------------------------|
----------------------------------------|


   E  S  E  S  E  E.  S  E  S  E  S  E  E   E   
-----------------------------------------------|
-----------------------------------------------|
------------------7---------------------7------|
--10----10----10--------10----10----10-----10--|
-----------------------------------------------|
-----------------------------------------------|


  E  S E  S E  E.  S E  S E  S E  E  E   
----------------------------------------|
----------------------------------------|
---------------7------------------7-----|
--9----9----9--------9----9----9-----9--|
----------------------------------------|
----------------------------------------|


  E  S E  S E  E.  S E  S E  S E  E  E   
----------------------------------------|
----------------------------------------|
----------------------------------------|
---------------7------------------7-----|
--9----9----9--------9----9----9-----9--|
----------------------------------------|


  E  S E  S E  E.  S E  S E  S E  E  E   
----------------------------------------|
----------------------------------------|
---------------9------------------9--7--|
--7----7----7--------7----7----7--------|
----------------------------------------|
----------------------------------------|


   E  S  E  S  E  E.  S  E  S  E  S  E  E   E   
-----------------------------------------------|
-----------------------------------------------|
------------------7---------------------7------|
--10----10----10--------10----10----10-----10--|
-----------------------------------------------|
-----------------------------------------------|


  E  S E  S E  E.  S E  S E  S E  E  E   
----------------------------------------|
----------------------------------------|
---------------7------------------7-----|
--9----9----9--------9----9----9-----9--|
----------------------------------------|
----------------------------------------|


  E  S E  S E  E.  S E  S E  S E  E  E   
----------------------------------------|
----------------------------------------|
----------------------------------------|
---------------7------------------7-----|
--9----9----9--------9----9----9-----9--|
----------------------------------------|


  E  S E  S E  E.  S E  S E  S E  E  E   
----------------------------------------|
----------------------------------------|
---------------9------------------9--7--|
--7----7----7--------7----7----7--------|
----------------------------------------|
----------------------------------------|


   E  S  E  S  E  E.  S  E  S  E  S  E  E   E   
-----------------------------------------------|
-----------------------------------------------|
------------------7---------------------7------|
--10----10----10--------10----10----10-----10--|
-----------------------------------------------|
-----------------------------------------------|


  E  S E  S E  E.  S E  S E  S E  E  E   
----------------------------------------|
----------------------------------------|
---------------7------------------7-----|
--9----9----9--------9----9----9-----9--|
----------------------------------------|
----------------------------------------|


                                           ^                 
  E  S E  S E  E.  S E  S E  S E  E  E     W.                
----------------------------------------|-------------------|
----------------------------------------|-------------------|
----------------------------------------|--9----------------|
---------------7------------------7-----|--7----------------|
--9----9----9--------9----9----9-----9--|--8----------------|
----------------------------------------|-------------------|


  ^                    ^                    ^                  
  W.                   W.                   W.                 
-------------------|--------------------|--------------------||
-------------------|--------------------|--------------------||
-------------------|--------------------|--------------------||
--9----------------|--12----------------|--12----------------||
--7----------------|--10----------------|--12----------------||
--7----------------|--10----------------|--12----------------||






Guitar 2



      Q    Q     S  S E  Q    Q     S  S  S  S  
D#||-------------------------------------------|
A#||------------10-10--------------10-10-10-10-|
F#||-------------9--9---------------9--9--9--9-|
C#||-------------7--7---------------7--7--7--7-|
G#||-------------------------------------------|
C#||-------------------------------------------|


  Q    Q     S  S E  Q    Q     S  S  S  S  
-------------------------------------------|
------------10-10--------------10-10-10-10-|
-------------9--9---------------9--9--9--9-|
-------------7--7---------------7--7--7--7-|
-------------------------------------------|
-------------------------------------------|


  Q    Q     S  S E  Q    Q     S  S  S  S  
-------------------------------------------|
------------10-10--------------10-10-10-10-|
-------------9--9---------------9--9--9--9-|
-------------7--7---------------7--7--7--7-|
-------------------------------------------|
-------------------------------------------|


  Q    Q     S  S E  Q    Q     S  S  S  S  
-------------------------------------------|
------------10-10--------------10-10-10-10-|
-------------9--9---------------9--9--9--9-|
-------------7--7---------------7--7--7--7-|
-------------------------------------------|
-------------------------------------------|


  Q    Q    S S E  Q    Q    S S S S    Q    Q    S S E  Q    Q    S S S S  
-------------------------------------|-------------------------------------|
------------8-8--------------8-8-8-8-|------------8-8--------------6-6-6-6-|
------------7-7--------------7-7-7-7-|------------7-7--------------7-7-7-7-|
------------5-5--------------5-5-5-5-|------------5-5--------------5-5-5-5-|
-------------------------------------|-------------------------------------|
-------------------------------------|-------------------------------------|


   E  E   E  E   E  E   E  E  E  E  E  E   
------------------------------------------|
--10-----10-----10-----10-----8-----8-----|
---9------9------9------9-----9-----9-----|
---7------7------7------7-----7-----7-----|
------------------------------------------|
------------------------------------------|


  E  E   E  E   E  E   E  E  E  E  E  E   
-----------------------------------------|
--8-----10-----10-----10-----8-----8-----|
--9------9------9------9-----9-----9-----|
--7------7------7------7-----7-----7-----|
-----------------------------------------|
-----------------------------------------|


  E  E  E  E  E  E  E  E  E  E  E  E     E  E  E  E  E  E  E  E  E  E  E  E   
--------7-----7-----7-----7-----7-----|--------------------------------------|
--8-----8-----8-----8-----8-----8-----|--6-----6-----6-----7-----7-----7-----|
--9-----7-----7-----7-----7-----7-----|--7-----7-----7-----7-----7-----7-----|
--7-----5-----5-----5-----5-----5-----|--5-----5-----5-----5-----5-----5-----|
--------------------------------------|--------------------------------------|
--------------------------------------|--------------------------------------|


   E  E   E  E   E  E   E  E  E  E  E  E   
------------------------------------------|
--10-----10-----10-----10-----8-----8-----|
---9------9------9------9-----9-----9-----|
---7------7------7------7-----7-----7-----|
------------------------------------------|
------------------------------------------|


  E  E   E  E   E  E   E  E  E  E  E  E   
-----------------------------------------|
--8-----10-----10-----10-----8-----8-----|
--9------9------9------9-----9-----9-----|
--7------7------7------7-----7-----7-----|
-----------------------------------------|
-----------------------------------------|


  E  E  E  E  E  E  E  E  E  E  E  E     E  E  E  E  E  E  E  E  E  E  E  E   
--------7-----7-----7-----7-----7-----|--------------------------------------|
--8-----8-----8-----8-----8-----8-----|--6-----6-----6-----7-----7-----7-----|
--9-----7-----7-----7-----7-----7-----|--7-----7-----7-----7-----7-----7-----|
--7-----5-----5-----5-----5-----5-----|--5-----5-----5-----5-----5-----5-----|
--------------------------------------|--------------------------------------|
--------------------------------------|--------------------------------------|


   E  E   E  E   E  E   E  E  E  E  E  E   
------------------------------------------|
--10-----10-----10-----10-----8-----8-----|
---9------9------9------9-----9-----9-----|
---7------7------7------7-----7-----7-----|
------------------------------------------|
------------------------------------------|


  E  E   E  E   E  E   E  E  E  E  E  E   
-----------------------------------------|
--8-----10-----10-----10-----8-----8-----|
--9------9------9------9-----9-----9-----|
--7------7------7------7-----7-----7-----|
-----------------------------------------|
-----------------------------------------|


  E  E  E  E  E  E  E  E  E  E  E  E     E  E  E  E  E  E  E  E  E  E  E  E   
--------7-----7-----7-----7-----7-----|--------------------------------------|
--8-----8-----8-----8-----8-----8-----|--6-----6-----6-----7-----7-----7-----|
--9-----7-----7-----7-----7-----7-----|--7-----7-----7-----7-----7-----7-----|
--7-----5-----5-----5-----5-----5-----|--5-----5-----5-----5-----5-----5-----|
--------------------------------------|--------------------------------------|
--------------------------------------|--------------------------------------|


   E  E   E  E   E  E   E  E  E  E  E  E   
------------------------------------------|
--10-----10-----10-----10-----8-----8-----|
---9------9------9------9-----9-----9-----|
---7------7------7------7-----7-----7-----|
------------------------------------------|
------------------------------------------|


  E  E   E  E   E  E   E  E  E  E  E  E   
-----------------------------------------|
--8-----10-----10-----10-----8-----8-----|
--9------9------9------9-----9-----9-----|
--7------7------7------7-----7-----7-----|
-----------------------------------------|
-----------------------------------------|


  E  E  E  E  E  E  E  E  E  E  E  E     E  E  E  E  E  E  E  E  E  E  E  E   
--------7-----7-----7-----7-----7-----|--------------------------------------|
--8-----8-----8-----8-----8-----8-----|--6-----6-----6-----7-----7-----7-----|
--9-----7-----7-----7-----7-----7-----|--7-----7-----7-----7-----7-----7-----|
--7-----5-----5-----5-----5-----5-----|--5-----5-----5-----5-----5-----5-----|
--------------------------------------|--------------------------------------|
--------------------------------------|--------------------------------------|


  E  S E  S E  E   E  E  S E  S E  E  E   
-----------------------------------------|
-----------------------------------------|
---------------9-------------------9--7--|
--7----7----7-----10--7----7----7--------|
-----------------------------------------|
-----------------------------------------|


   E  S  E  S  E  E  E   E  S  E  S  E  E   E   
-----------------------------------------------|
-----------------------------------------------|
------------------7--9------------------7------|
--10----10----10--------10----10----10-----10--|
-----------------------------------------------|
-----------------------------------------------|


  E  S E  S E  E.  S E  S E  S E  E   E   
-----------------------------------------|
-----------------------------------------|
---------------7------------------7------|
--9----9----9--------9----9----9-----10--|
-----------------------------------------|
-----------------------------------------|


  E  S E  S E  E.  S E  S E  S E  E  E   
----------------------------------------|
---------------9------------------9-----|
-------------------------------------9--|
--6----6----6--------6----6----6--------|
----------------------------------------|
----------------------------------------|


  E  S E  S E  E   E  E  S E  S E  E  E   
-----------------------------------------|
-----------------------------------------|
---------------9-------------------9--7--|
--7----7----7-----10--7----7----7--------|
-----------------------------------------|
-----------------------------------------|


   E  S  E  S  E  E  E   E  S  E  S  E  E   E   
-----------------------------------------------|
-----------------------------------------------|
------------------7--9------------------7------|
--10----10----10--------10----10----10-----10--|
-----------------------------------------------|
-----------------------------------------------|


  E  S E  S E  E.  S E  S E  S E  E   E   
-----------------------------------------|
-----------------------------------------|
---------------7------------------7------|
--9----9----9--------9----9----9-----10--|
-----------------------------------------|
-----------------------------------------|


  E  S E  S E  E.  S E  S E  S E  E  E   
----------------------------------------|
---------------9------------------9-----|
-------------------------------------9--|
--6----6----6--------6----6----6--------|
----------------------------------------|
----------------------------------------|


   PM    PM    PM         PM    PM    PM        
   E  S  E  S  E  E   E   E  S  E  S  E  E.  S  
-----------------------------------------7-----|
---------------------10------------------------|
------------------9----------------------------|
--10----10----10---------10----10----10--------|
-----------------------------------------------|
-----------------------------------------------|


   PM    PM    PM         PM    PM    PM         
   E  S  E  S  E  E   E   E  S  E  S  E   E  E   
------------------------------------------------|
---------------------10------------------10-----|
------------------9--------------------------9--|
--10----10----10---------10----10----10---------|
------------------------------------------------|
------------------------------------------------|


   PM    PM    PM         PM    PM    PM        
   E  S  E  S  E  E   E   E  S  E  S  E  E.  S  
-----------------------------------------7-----|
---------------------10------------------------|
------------------9----------------------------|
--10----10----10---------10----10----10--------|
-----------------------------------------------|
-----------------------------------------------|


   PM    PM    PM         PM    PM    PM         
   E  S  E  S  E  E   E   E  S  E  S  E   E  E   
------------------------------------------------|
---------------------10------------------10-----|
------------------9--------------------------9--|
--10----10----10---------10----10----10---------|
------------------------------------------------|
------------------------------------------------|


   E  E   E  E   E  E   E  E  E  E  E  E   
------------------------------------------|
--10-----10-----10-----10-----8-----8-----|
---9------9------9------9-----9-----9-----|
---7------7------7------7-----7-----7-----|
------------------------------------------|
------------------------------------------|


  E  E   E  E   E  E   E  E  E  E  E  E   
-----------------------------------------|
--8-----10-----10-----10-----8-----8-----|
--9------9------9------9-----9-----9-----|
--7------7------7------7-----7-----7-----|
-----------------------------------------|
-----------------------------------------|


  E  E  E  E  E  E  E  E  E  E  E  E     E  E  E  E  E  E  E  E  E  E  E  E   
--------7-----7-----7-----7-----7-----|--------------------------------------|
--8-----8-----8-----8-----8-----8-----|--6-----6-----6-----7-----7-----7-----|
--9-----7-----7-----7-----7-----7-----|--7-----7-----7-----7-----7-----7-----|
--7-----5-----5-----5-----5-----5-----|--5-----5-----5-----5-----5-----5-----|
--------------------------------------|--------------------------------------|
--------------------------------------|--------------------------------------|


   E  E   E  E   E  E   E  E  E  E  E  E   
------------------------------------------|
--10-----10-----10-----10-----8-----8-----|
---9------9------9------9-----9-----9-----|
---7------7------7------7-----7-----7-----|
------------------------------------------|
------------------------------------------|


  E  E   E  E   E  E   E  E  E  E  E  E   
-----------------------------------------|
--8-----10-----10-----10-----8-----8-----|
--9------9------9------9-----9-----9-----|
--7------7------7------7-----7-----7-----|
-----------------------------------------|
-----------------------------------------|


  E  E  E  E  E  E  E  E  E  E  E  E     E  E  E  E  E  E  E  E  E  E  E  E   
--------7-----7-----7-----7-----7-----|--------------------------------------|
--8-----8-----8-----8-----8-----8-----|--6-----6-----6-----7-----7-----7-----|
--9-----7-----7-----7-----7-----7-----|--7-----7-----7-----7-----7-----7-----|
--7-----5-----5-----5-----5-----5-----|--5-----5-----5-----5-----5-----5-----|
--------------------------------------|--------------------------------------|
--------------------------------------|--------------------------------------|


   E  E   E  E   E  E   E  E  E  E  E  E   
------------------------------------------|
--10-----10-----10-----10-----8-----8-----|
---9------9------9------9-----9-----9-----|
---7------7------7------7-----7-----7-----|
------------------------------------------|
------------------------------------------|


  E  E   E  E   E  E   E  E  E  E  E  E   
-----------------------------------------|
--8-----10-----10-----10-----8-----8-----|
--9------9------9------9-----9-----9-----|
--7------7------7------7-----7-----7-----|
-----------------------------------------|
-----------------------------------------|


  E  E  E  E  E  E  E  E  E  E  E  E     E  E  E  E  E  E  E  E  E  E  E  E   
--------7-----7-----7-----7-----7-----|--------------------------------------|
--8-----8-----8-----8-----8-----8-----|--6-----6-----6-----7-----7-----7-----|
--9-----7-----7-----7-----7-----7-----|--7-----7-----7-----7-----7-----7-----|
--7-----5-----5-----5-----5-----5-----|--5-----5-----5-----5-----5-----5-----|
--------------------------------------|--------------------------------------|
--------------------------------------|--------------------------------------|


   E  E   E  E   E  E   E  E  E  E  E  E   
------------------------------------------|
--10-----10-----10-----10-----8-----8-----|
---9------9------9------9-----9-----9-----|
---7------7------7------7-----7-----7-----|
------------------------------------------|
------------------------------------------|


  E  E   E  E   E  E   E  E  E  E  E  E   
-----------------------------------------|
--8-----10-----10-----10-----8-----8-----|
--9------9------9------9-----9-----9-----|
--7------7------7------7-----7-----7-----|
-----------------------------------------|
-----------------------------------------|


  E  E  E  E  E  E  E  E  E  E  E  E     E  E  E  E  E  E  E  E  E  E  E  E   
--------7-----7-----7-----7-----7-----|--------------------------------------|
--8-----8-----8-----8-----8-----8-----|--6-----6-----6-----7-----7-----7-----|
--9-----7-----7-----7-----7-----7-----|--7-----7-----7-----7-----7-----7-----|
--7-----5-----5-----5-----5-----5-----|--5-----5-----5-----5-----5-----5-----|
--------------------------------------|--------------------------------------|
--------------------------------------|--------------------------------------|


  E  S E  S E  E   E  E  S E  S E  E  E   
-----------------------------------------|
-----------------------------------------|
---------------9-------------------9--7--|
--7----7----7-----10--7----7----7--------|
-----------------------------------------|
-----------------------------------------|


   E  S  E  S  E  E  E   E  S  E  S  E  E   E   
-----------------------------------------------|
-----------------------------------------------|
------------------7--9------------------7------|
--10----10----10--------10----10----10-----10--|
-----------------------------------------------|
-----------------------------------------------|


  E  S E  S E  E.  S E  S E  S E  E   E   
-----------------------------------------|
-----------------------------------------|
---------------7------------------7------|
--9----9----9--------9----9----9-----10--|
-----------------------------------------|
-----------------------------------------|


  E  S E  S E  E.  S E  S E  S E  E  E   
----------------------------------------|
---------------9------------------9-----|
-------------------------------------9--|
--6----6----6--------6----6----6--------|
----------------------------------------|
----------------------------------------|


  E  S E  S E  E   E  E  S E  S E  E  E   
-----------------------------------------|
-----------------------------------------|
---------------9-------------------9--7--|
--7----7----7-----10--7----7----7--------|
-----------------------------------------|
-----------------------------------------|


   E  S  E  S  E  E  E   E  S  E  S  E  E   E   
-----------------------------------------------|
-----------------------------------------------|
------------------7--9------------------7------|
--10----10----10--------10----10----10-----10--|
-----------------------------------------------|
-----------------------------------------------|


  E  S E  S E  E.  S E  S E  S E  E   E   
-----------------------------------------|
-----------------------------------------|
---------------7------------------7------|
--9----9----9--------9----9----9-----10--|
-----------------------------------------|
-----------------------------------------|


  E  S E  S E  E.  S E  S E  S E  E  E   
----------------------------------------|
---------------9------------------9-----|
-------------------------------------9--|
--6----6----6--------6----6----6--------|
----------------------------------------|
----------------------------------------|


   PM    PM    PM         PM    PM    PM        
   E  S  E  S  E  E   E   E  S  E  S  E  E.  S  
-----------------------------------------7-----|
---------------------10------------------------|
------------------9----------------------------|
--10----10----10---------10----10----10--------|
-----------------------------------------------|
-----------------------------------------------|


   PM    PM    PM         PM    PM    PM         
   E  S  E  S  E  E   E   E  S  E  S  E  E.   S  
-----------------------------------------8\-----|
---------------------10-------------------------|
------------------9-----------------------------|
--10----10----10---------10----10----10---------|
------------------------------------------------|
------------------------------------------------|


  PM   PM   PM       PM   PM   PM        
  E  S E  S E  E.  S E  S E  S E  E.  S  
----------------------------------------|
----------------------------------------|
---------------9------------------9-----|
--6----6----6--------6----6----6--------|
----------------------------------------|
----------------------------------------|


  PM   PM   PM       PM   PM   PM        
  E  S E  S E  E.  S E  S E  S E  E.  S  
----------------------------------------|
----------------------------------------|
---------------9------------------9-----|
--6----6----6--------6----6----6--------|
----------------------------------------|
----------------------------------------|


   PM    PM    PM         PM    PM    PM        
   E  S  E  S  E  E   E   E  S  E  S  E  E.  S  
-----------------------------------------7-----|
---------------------10------------------------|
------------------9----------------------------|
--10----10----10---------10----10----10--------|
-----------------------------------------------|
-----------------------------------------------|


   PM    PM    PM         PM    PM    PM         
   E  S  E  S  E  E   E   E  S  E  S  E  E.   S  
-----------------------------------------8\-----|
---------------------10-------------------------|
------------------9-----------------------------|
--10----10----10---------10----10----10---------|
------------------------------------------------|
------------------------------------------------|


  PM   PM   PM       PM   PM   PM        
  E  S E  S E  E.  S E  S E  S E  E.  S  
----------------------------------------|
----------------------------------------|
---------------9------------------9-----|
--6----6----6--------6----6----6--------|
----------------------------------------|
----------------------------------------|


  PM   PM   PM       PM   PM   PM        
  E  S E  S E  E.  S E  S E  S E  E.  S  
----------------------------------------|
----------------------------------------|
---------------9------------------9-----|
--6----6----6--------6----6----6--------|
----------------------------------------|
----------------------------------------|


  E  S E  S E  E   E  E  S E  S E  E  E   
-----------------------------------------|
-----------------------------------------|
---------------9-------------------9--7--|
--7----7----7-----10--7----7----7--------|
-----------------------------------------|
-----------------------------------------|


   E  S  E  S  E  E  E   E  S  E  S  E  E   E   
-----------------------------------------------|
-----------------------------------------------|
------------------7--9------------------7------|
--10----10----10--------10----10----10-----10--|
-----------------------------------------------|
-----------------------------------------------|


  E  S E  S E  E.  S E  S E  S E  E   E   
-----------------------------------------|
-----------------------------------------|
---------------7------------------7------|
--9----9----9--------9----9----9-----10--|
-----------------------------------------|
-----------------------------------------|


                                           ^                 
  E  S E  S E  E.  S E  S E  S E  E  E     W.                
----------------------------------------|-------------------|
---------------9------------------9-----|-------------------|
-------------------------------------9--|--9----------------|
--6----6----6--------6----6----6--------|--7----------------|
----------------------------------------|--8----------------|
----------------------------------------|-------------------|


   ^                    ^                    ^                 
   W.                   W.                   W.                
--12----------------|--------------------|--------------------|
--12----------------|--------------------|--------------------|
--12----------------|--12----------------|--14----------------|
--10----------------|--12----------------|--12----------------|
--------------------|--10----------------|--12----------------|
--------------------|--10----------------|--12----------------|


  E.  E.  E  E.  S E.  E.  E  E.  S  
------------------------------------|
------------------------------------|
------------------------------------|
--3---3---3--3-----3---3---3--3-----|
--3---3---3--3-----3---3---3--3-----|
--3---3---3--3-----3---3---3--3-----|


   E.   E.   E   E.  S  E.   E.   E   E.  S  
--------------------------------------------|
--------------------------------------------|
--------------------------------------------|
--10---10---10--10-----10---10---10--10-----|
---7----7----7---7------7----7----7---7-----|
---7----7----7---7------7----7----7---7-----|


   E.   E.   E   E.  S  E.   E.   E   E.  S  
--------------------------------------------|
--------------------------------------------|
--------------------------------------------|
--12---12---12--12-----12---12---12--12-----|
--10---10---10--10-----10---10---10--10-----|
--10---10---10--10-----10---10---10--10-----|


   E.   E.   E   E.  S  E.   E.   E   E.  S  
--------------------------------------------|
--------------------------------------------|
--------------------------------------------|
--12---12---12--12-----12---12---12--12-----|
--12---12---12--12-----12---12---12--12-----|
--12---12---12--12-----12---12---12--12-----|


  E.  E.  E  E.  S E.  E.  E  E.  S  
------------------------------------|
------------------------------------|
------------------------------------|
--3---3---3--3-----3---3---3--3-----|
--3---3---3--3-----3---3---3--3-----|
--3---3---3--3-----3---3---3--3-----|


   E.   E.   E   E.  S  E.   E.   E   E.  S  
--------------------------------------------|
--------------------------------------------|
--------------------------------------------|
--10---10---10--10-----10---10---10--10-----|
---7----7----7---7------7----7----7---7-----|
---7----7----7---7------7----7----7---7-----|


   E.   E.   E   E.  S  E.   E.   E   E.  S  
--------------------------------------------|
--------------------------------------------|
--------------------------------------------|
--12---12---12--12-----12---12---12--12-----|
--10---10---10--10-----10---10---10--10-----|
--10---10---10--10-----10---10---10--10-----|


   E.   E.   E   E.  S  E.   E.   E   E.  S  
--------------------------------------------|
--------------------------------------------|
--------------------------------------------|
--12---12---12--12-----12---12---12--12-----|
--12---12---12--12-----12---12---12--12-----|
--12---12---12--12-----12---12---12--12-----|


  E.  E.  E  E.  S E.  E.  E  E.  S  
------------------------------------|
------------------------------------|
------------------------------------|
--3---3---3--3-----3---3---3--3-----|
--3---3---3--3-----3---3---3--3-----|
--3---3---3--3-----3---3---3--3-----|


   E.   E.   E   E.  S  E.   E.   E   E.  S  
--------------------------------------------|
--------------------------------------------|
--------------------------------------------|
--10---10---10--10-----10---10---10--10-----|
---7----7----7---7------7----7----7---7-----|
---7----7----7---7------7----7----7---7-----|


   E.   E.   E   E.  S  E.   E.   E   E.  S  
--------------------------------------------|
--------------------------------------------|
--------------------------------------------|
--12---12---12--12-----12---12---12--12-----|
--10---10---10--10-----10---10---10--10-----|
--10---10---10--10-----10---10---10--10-----|


   E.   E.   E   E.  S  E.   E.   E   E.  S  
--------------------------------------------|
--------------------------------------------|
--------------------------------------------|
--12---12---12--12-----12---12---12--12-----|
--12---12---12--12-----12---12---12--12-----|
--12---12---12--12-----12---12---12--12-----|


  E.  E.  E  E.  S E.  E.  E  E.  S  
------------------------------------|
------------------------------------|
------------------------------------|
--3---3---3--3-----3---3---3--3-----|
--3---3---3--3-----3---3---3--3-----|
--3---3---3--3-----3---3---3--3-----|


   E.   E.   E   E.  S  E.   E.   E   E.  S  
--------------------------------------------|
--------------------------------------------|
--------------------------------------------|
--10---10---10--10-----10---10---10--10-----|
---7----7----7---7------7----7----7---7-----|
---7----7----7---7------7----7----7---7-----|


   E.   E.   E   E.  S  E.   E.   E   E.  S  
--------------------------------------------|
--------------------------------------------|
--------------------------------------------|
--12---12---12--12-----12---12---12--12-----|
--10---10---10--10-----10---10---10--10-----|
--10---10---10--10-----10---10---10--10-----|


   E.   E.   E   E.  S  E.   E.   E   E.  S                      
--------------------------------------------|-------------------|
--------------------------------------------|-------------------|
--------------------------------------------|-------------------|
--12---12---12--12-----12---12---12--12-----|-------------------|
--12---12---12--12-----12---12---12--12-----|-------------------|
--12---12---12--12-----12---12---12--12-----|-------------------|


-------------------|-------------------|-------------------||
-------------------|-------------------|-------------------||
-------------------|-------------------|-------------------||
-------------------|-------------------|-------------------||
-------------------|-------------------|-------------------||
-------------------|-------------------|-------------------||




Duration Legend
---------------
W - whole
H - half
Q - quarter
E - 8th
S - 16th
T - 32nd
X - 64th
. - note dotted
|-n-|  - n-tuplets


Tablature Legend
----------------
L - tied note
x - dead note
g - grace note
(n) - ghost note
> - accentuded note
NH - natural harmonic
AH - artificial harmonic
TH - tapped harmonic
SH - semi harmonic
PH - pitch harmonic
h - hammer on
p - pull off
b - bend
br - bendRelease
pb - preBend
pbr - preBendRelease
brb - bendReleaseBend
\n/ - tremolo bar dip
\n - tremolo bar dive
-/n - tremolo bar Release up
/n\ - tremolo bar inverted dip
/n - tremolo bar return
-\n - tremolo bar Release down
S - shift slide
s - legato slide
/ -  slide into from below or out of upwards
\ -  slide into from above or out of downwards
~ - vibrato
W - wide vibrato
tr - trill
TP - tremolo picking
T - tapping
S - slap
P - pop
< - fade in
^ - brush up
v - brush down
Добавлено: 21.03.2012
Другие материалы по этой песне:
  • Аккорды и текст

Страница создана 21.03.2012
http://primanota.ru/kensington/i-was-too-scared-chords.htm
Привет, Гость.
Предлагаем пройти революционный курс по гитаре.
Подарок от PrimaNota.Ru, забирай!