PrimaNota.ru - самый крупный в мире бесплатный архив песенных текстов, аккордов, табулатур и нот


Kenny Wayne Shepherd - Let Me Up Ive Had Enough - текст песни, таба, видео

Регистрация Запомнить меня
Войти через:  Facebook Google Twitter Vk Yandex Mail.ru

Kenny Wayne Shepherd - Let Me Up Ive Had Enough - текст песни, таба, видео

Печатать
Просмотров: 93
Уроки эстрадного вокала в Санкт-Петербурге
Авторы музыки: Mark Selby, Kenny Wayne Shepherd, Joe Nadeau

As recorded by Kenny Wayne Shepherd
(From the 1995 Album LEDBETTER HEIGHTS)


Transcribed by Tone Jones

 Words and Music by Kenny Wayne Shepherd,Mark Selby and Joe Nadeau

 

N.C.
0 0 0 0 0 0 B7
x 2 1 2 0 2 E
0 2 2 1 0 0 F#
2 4 4 3 2 2 
G
3 5 5 4 3 3 G#
4 6 6 5 4 4 A
5 7 7 6 5 5 B
7 9 9 8 7 7 
G#5
4 6 6 x x x E7+9
0 7 6 7 8 x 


Gtr I (Eb Ab Db Gb Bb Eb) - 'Dist Gtr (Slight Dist)'
Gtr II (Eb Ab Db Gb Bb Eb) - 'Dist Gtr (Slight Dist)'
Gtr III (Eb Ab Db Gb Bb Eb) - 'Acoustic Gtr (Steel)'
Gtr IV (Eb Ab Db Gb Bb Eb) - 'Dist Gtr. (Slight Dist)'


 Intro
  Moderate Shuffle Q=119(8=s8)
  N.C.                        E
 4/4
  Gtr I
        |-3-| |-3-| |-3-|                 |--3--|               |--3--|
  E E a E E E E E E S S S E   e E e E e E E E   E   E E E E E E E E   E
|---------------------------|---------------------|----------------------|
|---------------------------|---------------------|----------------------|
|---------------------------|---------------0-----|-1--------------------|
|---------------2-----------|-------------------2-|-x--------------------|
|---------0-1-2---2-0h1p0---|-2-2-4-4-5-5---------|-2-2-4-4-5-5----------|
|---0-3s4-----------------0-|-0-0-0-0-0-0-0-------|-0-0-0-0-0-0-0-3---4--|
|
| Gtr II
| W                           e E e E e E E   E     E E E E E E E   E
|---------------------------|---------------------|----------------------|
|---------------------------|-0---2---0-------2---|-0---2-2-0---2--------|
|---------------------------|-x---2---1-------2---|-1---2-2-1---2--------|
|---------------------------|-2---------------2---|-2---2-2-2---2--------|
|---------------------------|---------------------|----------------------|
|---------------------------|---0-----------------|---0-------0----------|


  A                                           B
                                    |--3--|
  E E E E E E E   E     E E E E E E E E   E   E E E E E E E   E
|---------------------|---------------------|---------------------|
|---------------------|---------------------|---------------------|
|---------------------|---------------------|---------------------|
|-2-2-4-4-5-5-4---4---|-2-2-4-4-2-2-3-3---3-|-4-4-6-6-4-4-6---6---|
|-0-0-0-0-0-0-0---0---|-0-0-0-0-0-0-0-------|-2-2-2-2-2-2-2---2---|
|---------------------|---------------------|---------------------|
|
|             |--3--|                                     |--3--|
| E E E E E E E E   E   E E E E E E E   E     E E E E E E E E   E
|---------------------|---------------------|---------------------|
|---------------------|---------------------|-----9---------------|
|-6-------------7---7-|-6---7-7-6---7-------|-8---9-9-8-----9-----|
|-x-------------x---x-|-x---x-x-x---x-------|-x---9-9-x-----x-----|
|-7-7-9-9-7-7-7-7---7-|-7---7-7-7---8-------|-9-------9-9---9-----|
|-5-5-5-5-5-5-5-------|---5-------5---------|-7-------7-7-7-----7-|


        |--3--| |--3--|  |-3-|
  E E a E E   E E E   E  S S S  E
|---------------------------------|
|---------------------------------|
|---------------------------------|
|-4---------------2---------------|
|-2-------0---1-2-----2--0h1p0----|
|---0-3s4-----------------------3-|
|
| E E   E   E   E   E    E      E
|---------------------------------|
|-------9-------------------------|
|-8-----9-------------------------|
|-x-----9-------------------------|
|-9-------------9---9---11-----11-|
|-7-7-------7---7---7----7------7-|


  E                                               B7
                      |--3--|         |--3--|  |-3--| |-3-|
  E E E   E   E   E   E E   E   E E a E E   E  E  E E S S S E
|-----------------------------|-------------------------------||
|-----------------------------|-------------------------------||
|-----------------------0-----|-1-----------------------------||
|-2-------------------------2-|-------------------2-----------||
|---2-4---4---5---5-----------|---------0---1--2----2-0h1p0---||
|---0-0---0---0---0---0-------|---0-3s4---------------------3-||
|
|     |--3--| |--3--| |--3--|
| E E E E   E E E   E E E a E   E E   E   E   +H
|-------4-------3-------2-----|-0-----1---2---(2)-------------||
|-----------------------------|-0-----1---2---(2)-------------||
|---2s4-----4-3-----3-2---0h1-|-------1---2---(2)-------------||
|-----------------------------|-------------------------------||
|-----------------------------|-------------------------------||
|-----------------------------|-------------------------------||


 Verse
  E                                           A
              |--3--|               |--3--|
  e E e E e E E E   E   E E E E E E E E   E   E E E E E E E   E
|---------------------|---------------------|---------------------|
|---------------------|---------------------|---------------------|
|---------------0-----|-1-------------------|---------------------|
|-------------------2-|-x-------------------|-2-2-4-4-5-5-4---4---|
|-2-2-4-4-5-5---------|-2-2-4-4-5-5---------|-0-0-0-0-0-0-0---0---|
|-0-0-0-0-0-0-0-------|-0-0-0-0-0-0-0-3---4-|---------------------|
|
|                                                         |--3--|
| e E e E e E E   E     E E E E E E E   E     E E E E E E E E   E
|---------------------|---------------------|---------------------|
|-0---2---0-------2---|-0---2-2-0---2-------|---------------------|
|-x---2---1-------2---|-1---2-2-1---2-------|-6-------------7---7-|
|-2---------------2---|-2---2-2-2---2-------|-x-------------x---x-|
|---------------------|---------------------|-7-7-9-9-7-7-7-7---7-|
|---0-----------------|---0-------0---------|-5-5-5-5-5-5-5-------|


                        B
              |--3--|                               |--3--| |--3--|  |-3-|
  E E E E E E E E   E   E E E E E E E   E     E E a E E   E E E   E  S S S  E
|---------------------|---------------------|----------------------------------|
|---------------------|---------------------|----------------------------------|
|---------------------|---------------------|----------------------------------|
|-2-2-4-4-2-2-3-3---3-|-4-4-6-6-4-4-6---6---|-4---------------2----------------|
|-0-0-0-0-0-0-0-------|-2-2-2-2-2-2-2---2---|-2-------0---1-2-----2--0h1p0-----|
|---------------------|---------------------|---0-3s4-----------------------3--|
|
|                                   |--3--|
| E E E E E E E   E     E E E E E E E E   E   E E   E   E   E   E    E      E
|---------------------|---------------------|----------------------------------|
|---------------------|-----9---------------|-------9--------------------------|
|-6---7-7-6---7-------|-8---9-9-8-----9-----|-8-----9--------------------------|
|-x---x-x-x---x-------|-x---9-9-x-----x-----|-x-----9--------------------------|
|-7---7-7-7---8-------|-9-------9-9---9-----|-9-------------9---9---11-----11--|
|---5-------5---------|-7-------7-7-7-----7-|-7-7-------7---7---7----7------7--|


  E                                               B7
                      |--3--|         |--3--|  |-3--| |-3-|
  E E E   E   E   E   E E   E   E E a E E   E  E  E E S S S E
|-----------------------------|-------------------------------||
|-----------------------------|-------------------------------||
|-----------------------0-----|-1-----------------------------||
|-2-------------------------2-|-------------------2-----------||
|---2-4---4---5---5-----------|---------0---1--2----2-0h1p0---||
|---0-0---0---0---0---0-------|---0-3s4---------------------3-||
|
|     |--3--| |--3--| |--3--|
| E E E E   E E E   E E E a E   E E   E   E   +H
|-------4-------3-------2-----|-0-----1---2---(2)-------------||
|-----------------------------|-0-----1---2---(2)-------------||
|---2s4-----4-3-----3-2---0h1-|-------1---2---(2)-------------||
|-----------------------------|-------------------------------||
|-----------------------------|-------------------------------||
|-----------------------------|-------------------------------||


 Verse
  E                                           A
              |--3--|               |--3--|
  e E e E e E E E   E   E E E E E E E E   E   E E E E E E E   E
|---------------------|---------------------|---------------------|
|---------------------|---------------------|---------------------|
|---------------0-----|-1-------------------|---------------------|
|-------------------2-|-x-------------------|-2-2-4-4-5-5-4---4---|
|-2-2-4-4-5-5---------|-2-2-4-4-5-5---------|-0-0-0-0-0-0-0---0---|
|-0-0-0-0-0-0-0-------|-0-0-0-0-0-0-0-3---4-|---------------------|
|
|                                                         |--3--|
| e E e E e E E   E     E E E E E E E   E     E E E E E E E E   E
|---------------------|---------------------|---------------------|
|-0---2---0-------2---|-0---2-2-0---2-------|---------------------|
|-x---2---1-------2---|-1---2-2-1---2-------|-6-------------7---7-|
|-2---------------2---|-2---2-2-2---2-------|-x-------------x---x-|
|---------------------|---------------------|-7-7-9-9-7-7-7-7---7-|
|---0-----------------|---0-------0---------|-5-5-5-5-5-5-5-------|


                        B
              |--3--|                               |--3--| |--3--|  |-3-|
  E E E E E E E E   E   E E E E E E E   E     E E a E E   E E E   E  S S S  E
|---------------------|---------------------|----------------------------------|
|---------------------|---------------------|----------------------------------|
|---------------------|---------------------|----------------------------------|
|-2-2-4-4-2-2-3-3---3-|-4-4-6-6-4-4-6---6---|-4---------------2----------------|
|-0-0-0-0-0-0-0-------|-2-2-2-2-2-2-2---2---|-2-------0---1-2-----2--0h1p0-----|
|---------------------|---------------------|---0-3s4-----------------------3--|
|
|                                   |--3--|
| E E E E E E E   E     E E E E E E E E   E   E E   E   E   E   E    E      E
|---------------------|---------------------|----------------------------------|
|---------------------|-----9---------------|-------9--------------------------|
|-6---7-7-6---7-------|-8---9-9-8-----9-----|-8-----9--------------------------|
|-x---x-x-x---x-------|-x---9-9-x-----x-----|-x-----9--------------------------|
|-7---7-7-7---8-------|-9-------9-9---9-----|-9-------------9---9---11-----11--|
|---5-------5---------|-7-------7-7-7-----7-|-7-7-------7---7---7----7------7--|


  E                                   F#  G    G#5
  E E   E   E   E   E   E     E   E E E E  Q   Q
|-------------------------------|-----------------||
|-------------------------------|-----------------||
|-------------------------------|-----3----4------||
|-------------------------------|---4-4-5--4---6--||
|-2-2---2---2---5---5---5-----5-|-2-4-4-5--5---6--||
|-0-0---0---0---0---0---0-----0-|-0---2----3---4--||
|
|   |--3--| |--3--| |---3---|
| E E E   E E E   E E E   a E E   E E E E +Q   Q
|-----4-------3-------2-------0-|-0---------------||
|-----------------------------0-|-----------------||
|-2s4-----4-3-----3-2-----0h1---|-----3-4-(4)-----||
|-------------------------------|-----4-5-(5)-----||
|-------------------------------|-----4-5-(5)-----||
|-------------------------------|-----2-3-(3)-----||


 Chorus
  $
  A
  E E E E +E      E E     E   E E E E +E      E E     E
|-------8-(8)b8.5-----------|-------8-(8)b8.5-----------|
|-------x-------------------|-------x-------------------|
|-2-0---8-(8)b8.5-0-------0-|-2-0---8-(8)b8.5-0-------0-|
|-2-0-------------0-------0-|-2-0-------------0-------0-|
|-0---0---------------------|-0---0---------------------|
|-------------------3b3.5---|-------------------3b3.5---|
|
| E E E E +E      E Q         E E E E +Q        Q
|---------------------------|---------------------------|
|---------------------------|---------------------------|
|-2-0-2---------------------|---0-2-2-(2)---------------|
|-2-0-------------2---------|-2-0-2-2-(2)---------------|
|-0-----0-(0)-----0-0-------|-0-----0-(0)---------------|
|---------------------------|---------------------------|


  E                                             A
                  |-3-|
  E E   E   E E E E E E   E E   E E  E  E E E   E E E E +E      E E     E
|-----------------------|---------------------|-------8-(8)b8.5-----------|
|-----------------------|---------0-----0-----|-------x-------------------|
|-----------------------|-1-------0-----0-----|-2-0---8-(8)b8.5-0-------0-|
|-----------------------|-2-4---4-0--5----6-0-|-2-0-------------0-------0-|
|-2-2---4---4-5-5-4-4-4-|-2-----4----5----6-0-|-0---0---------------------|
|-0-0---0---0-0-0-0-0-0-|-0-----2----3----4---|-------------------3b3.5---|
|
| Q   a E a E H           Q   a E E +H          E E E E +E      E Q
|-----7s9-7s9s7---------|-----7s9-7-(7)-------|---------------------------|
|-----7S9-7S9S7---------|-----7S9-7-(7)-------|---------------------------|
|-----7S9-7S9S7---------|-----7S9-7-(7)-------|-2-0-2---------------------|
|-----------------------|---------------------|-2-0-------------2---------|
|-----------------------|---------------------|-0-----0-(0)-----0-0-------|
|-----------------------|---------------------|---------------------------|


  W
  E E E E +E      E E     E
|-------8-(8)b8.5-----------|
|-------x-------------------|
|-2-0---8-(8)b8.5-0-------0-|
|-2-0-------------0-------0-|
|-0---0---------------------|
|-------------------3b3.5---|
|
| E E E E +Q        E     E
|---------------------------|
|---------------------------|
|---0-2-2-(2)-------------9s|
|-2-0---2-(2)---------------|
|-0-----0-(0)---------------|
|---------------------------|


  B7
  Gtr III
   |---3---| |--3--| |--3--| |--3--|
   E  E    E E E   E E E   E E E   E   E   E   E   E    E  E E E
   |  |    | | |   | | |   | | |   |   |   |   |   |    |  | | |
   /  /    / / /   / / /   / / /   /   /   /   /   /    /  / / /

   E    E    E   E   E   E   E   E     E   E   E   E    E  E E E
|------------------------------------|-------------0-------0---0-||
|------------------------------------|-------------0-------0---0-||
|--2---------2-------2-------2-------|-2-----------0-------0---0-||
|--1---------1-------1-------1-------|-1-------1-----------------||
|-------2--------2-------2-------2---|-----2---0-----------------||
|------------------------------------|------------------4----2---||
|
|  |---3---| |--3--| |--3--| |--3--|   |--3--| |--3--|
|  E  E    E E E   E E E   E E E   E   E E   E E E   E +Q    Q
|----11--------9-------7-------5-----|---4-------3---2-(2)-------||
|------------------------------------|---------------x-----------||
|-11------11-9-----9-8-----8-6-----6-|-4-----4-3-----2-(2)-------||
|------------------------------------|---------------------------||
|------------------------------------|---------------------------||
|------------------------------------|---------------------------||


 Verse
  E                                           A
              |--3--|               |--3--|
  e E e E e E E E   E   E E E E E E E E   E   E E E E E E E   E
|---------------------|---------------------|---------------------|
|---------------------|---------------------|---------------------|
|---------------0-----|-1-------------------|---------------------|
|-------------------2-|-x-------------------|-2-2-4-4-5-5-4---4---|
|-2-2-4-4-5-5---------|-2-2-4-4-5-5---------|-0-0-0-0-0-0-0---0---|
|-0-0-0-0-0-0-0-------|-0-0-0-0-0-0-0-3---4-|---------------------|
|
|                                                         |--3--|
| e E e E e E E   E     E E E E E E E   E     E E E E E E E E   E
|---------------------|---------------------|---------------------|
|-0---2---0-------2---|-0---2-2-0---2-------|---------------------|
|-x---2---1-------2---|-1---2-2-1---2-------|-6-------------7---7-|
|-2---------------2---|-2---2-2-2---2-------|-x-------------x---x-|
|---------------------|---------------------|-7-7-9-9-7-7-7-7---7-|
|---0-----------------|---0-------0---------|-5-5-5-5-5-5-5-------|


                        B
              |--3--|
  E E E E E E E E   E   E E E E E E E   E
|---------------------|---------------------|
|---------------------|---------------------|
|---------------------|---------------------|
|-2-2-4-4-2-2-3-3---3-|-4-4-6-6-4-4-6---6---|
|-0-0-0-0-0-0-0-------|-2-2-2-2-2-2-2---2---|
|---------------------|---------------------|
|
|                                   |--3--|
| E E E E E E E   E     E E E E E E E E   E
|---------------------|---------------------|
|---------------------|-----9---------------|
|-6---7-7-6---7-------|-8---9-9-8-----9-----|
|-x---x-x-x---x-------|-x---9-9-x-----x-----|
|-7---7-7-7---8-------|-9-------9-9---9-----|
|---5-------5---------|-7-------7-7-7-----7-|


                           To Coda
  Gtr I
        |--3--| |--3--|  |-3-|
  E E a E E   E E E   E  S S S  E
|---------------------------------|
|---------------------------------|
|---------------------------------|
|-4---------------2---------------|
|-2-------0---1-2-----2--0h1p0----|
|---0-3s4-----------------------3-|
|
| Gtr II
| E E   E   E   E   E    E      E
|---------------------------------|
|-------9-------------------------|
|-8-----9-------------------------|
|-x-----9-------------------------|
|-9-------------9---9---11-----11-|
|-7-7-------7---7---7----7------7-|


                                              Gtrs I, II
                                      |--3--|      |---3---|
  E E E   E   E   E   E   E       E E E E   E  Q   E   +E  E
|-------------------------------|--------------------------7---||
|-------------------------------|------------------7b8-(7)-----||
|-------------------------------|------------------------------||
|-2-----------------------------|------------------------------||
|---2-2---2---2---2---2---2-----|-2---0-1---2--2---------------||
|---0-0---0---0---0---0---0-----|-0-0--------------------------||
|                                 H            Q   Q
|
|     |--3--| |--3--| |---3---|                    |---3---|
| E E E E   E E E   E E E   a E   E E E   E   +Q   E    E  E
|-------4-------3-------2-------|-0----------------------------||
|-------------------------------|------------------------------||
|---2s4-----4-3-----3-2-----0h1-|------------------1----2--3---||
|-------------------------------|------------------------------||
|-------------------------------|---0-1---2---(2)--------------||
|-------------------------------|------------------------------||


 Guitar Solo
  E
  Gtr I
  |----3----| |----3----| |----3----| |----3----|
  E   +E    E E   +E    E E   +E    E E   +E    E
|-----------7-----------7-----------7-----------7-|
|-7b8-(7)-----7b8-(7)-----7b8-(7)-----7b8-(7)-----|
|-------------------------------------------------|
|-------------------------------------------------|
|-------------------------------------------------|
|-------------------------------------------------|
|
| Gtr II
| e       E   e       E   e       E   E       E
|-------------------------------------------------|
|-0-----------2-----------0-------------------2---|
|-x-----------2-----------1-------------------2---|
|-2-------------------------------------------2---|
|-------------------------------------------------|
|---------0---------------------------------------|


                                                 A
                                                         ~
  |----3----| |----3----| |----3----|  |--3--|               |-3-|
  E   +E    E E   +E    E E   +E    E  E E   E   E E E E E E S S S E
|-----------7-----------7-----------7-10-9---7-|-5---3-3---3-------0---|
|-7b8-(7)-----7b8-(7)-----7b8-(7)--------------|---0-----5---5p3p0-----|
|----------------------------------------------|---0-------------------|
|----------------------------------------------|-----------------------|
|----------------------------------------------|-----------------------|
|----------------------------------------------|-----------------------|
|
|                                                            |---3---|
| E       E   E       E   E       E    E   E     E E E E E E E   E   E
|----------------------------------------------|-----------------------|
|-0-----------2-------2---0------------2-------|-----------------------|
|-1-----------2-------2---1------------2-------|-6---------------7---7-|
|-2-----------2-------2---2------------2-------|-x---------------x---x-|
|----------------------------------------------|-7-7-9-9-7-7-7---7---7-|
|---------0-----------------------0------------|-5-5-5-5-5-5-5---------|


          |--3--|         |--3--|
  E   +E  E E   E E   +E  E E   E
|---------0---------------0-------|
|-3b5-(3)---3---0-3b5-(3)---3---0-|
|---------------------------------|
|---------------------------------|
|---------------------------------|
|---------------------------------|
|
| E    E  E   E   E    E  E   E
|---------------------------------|
|---------------------------------|
|-6-------7---7---6-------7-------|
|-x-------x---x---x-------x-------|
|-7-------7---7---7-------8-------|
|------5---------------5----------|


  B
          |-3-|   |--3--| |-3-|           |--3--|  |-3-|
  a E a E S S S E E E   E E E E   E E E E E E   E  S S S  E
|-0h2-0h2-0h1p0---0-------------|----------------------------|
|---------------3---3---0-----3-|----------------------------|
|-------------------------2s4---|-2-0-2-1--------------------|
|-------------------------------|---------2-0----------------|
|-------------------------------|---------------2--0h1p0-----|
|-------------------------------|-------------------------3--|
|
|                         |-3-|
|   E   E E     E E   E   E E E   E E E E E   E    E      E
|-------------------------------|----------------------------|
|---------9---------------------|-----9----------------------|
|---8-----9-----9-8---------9---|-8---9----------------------|
|---x-----9-----9-x---------x---|-x---9----------------------|
|---9-------------9---9-----9---|-9-------9---9---11-----11--|
|---7-------------7---7---7---7-|-7-7---7-7---7----7------7--|


  E                                                             B7
                                      |--3--|          |-3--|
  E E a E   E   a E   E   a Q         E E   E E   +E   E  E E   +Q
|-----------------------------------|------------------5--7----------|
|---0-------------------------------|-5-----5-7b9-(7)-------7b8r(7)--|
|---x-----------------4---2s6-------|---6----------------------------|
|-2---------2---2s4-----------------|--------------------------------|
|-----2s4---------------------------|--------------------------------|
|-----------------------------------|--------------------------------|
|
|       |--3--|   |--3--|   |--3--|
| E E   E E   E   E E   E   E E a E   E   E   E    E  +H
|---------4---------3---------2-----|-0-------1----2--(2)------------|
|-----------------------------------|-0-------1----2--(2)------------|
|---2s==4-----4---3-----3---2---0h1-|---------1----2--(2)------------|
|-----------------------------------|--------------------------------|
|-----------------------------------|--------------------------------|
|-----------------------------------|--------------------------------|


  E
  ~                 ~     ~
                                    |-3-|   |--3--|
  E E E   E S S S S E E   E E E   E S S S E E E   E
|-----------------------|---------------------------|
|-5---7b9---5h7p5---5---|-5---7b9---5h7p5---5-----5-|
|---0-----0-------6---0-|---0-----0-------6---6-----|
|---0-----0-----------0-|---0-----0-----------------|
|-----------------------|---------------------------|
|-----------------------|---------------------------|
|
| e E e   E e   E   E E   E E E   E E     E E   E
|-----------------------|---------------------------|
|-0---2-----0---------2-|-0---2---2-0-------2-------|
|-x---2-----1---------2-|-1---2---2-1-------2-------|
|-2-------------------2-|-2---2---2-2-------2-------|
|-----------------------|---------------------------|
|---0-------------------|---0-------------0---------|


  A
  |--3--| |---3---| |-3-|      |-3--|
  E E   E E   E   E S S S E   +E  E E
|-7-6---5-----5---7-5h6p5--------------|
|---------7b9-------------7b9-(7)-5----|
|-----------------------------------6--|
|--------------------------------------|
|--------------------------------------|
|--------------------------------------|
|
|                              |-3--|
| E   E   E     E   E     E    E  E E
|--------------------------------------|
|--------------------------------------|
|-6-------------------------------7-7--|
|-x-------------------------------x-x--|
|-7---7---9-----9---7-----7----7--7-7--|
|-5---5---5-----5---5-----5----5-------|


                             B
  ~                                                    ~
            |-3-|                  |--3--|    |--3---|
  E E Q     S S S E Q        +Q    E E   E   +E  E   E E   E
|-------------------7b10---|-(7)---7-5-------------------------|
|-5---7b9---5h7p5----------|-------------7b8r(7)-5-----5-------|
|---0-------------6--------|-------------------------6-----0---|
|---0----------------------|-------------------------------0---|
|--------------------------|-----------------------------------|
|--------------------------|-----------------------------------|
|
|                                                      |--3--|
| E E E   E E     E E    E    E  E E   E      E    E   E E   E
|--------------------------|-----------------------------------|
|--------------------------|-------9---------------------------|
|-6---7---7-6-------7------|--8----9---9------8----------9-----|
|-x---x---x-x-------x------|--x----9---9------x----------x-----|
|-7---7---7-7-------8------|--9---------------9----9-----9-----|
|---5-------------5--------|--7---------------7----7---7-----7-|


                          E                 E
                        Gtr III
  W                       H           Q     E       E
                                            |       |
                                            /       /

                        Gtr I
                                |-3-| |-3-| |-3-|
  E   E a Q   E E  E  E   E E a E E E E E E S S S a E
|-----0-----------------|---------------------------------|
|-7b9-0-----------------|---------------------------------|
|-----0-4s2---2-0-------|---------------------------------|
|------------------2--0-|-2---0h2-2-2-2p0-----------------|
|-----------------------|-----------------2-0h1p0---------|
|-----------------------|-------------------------3p0-----|
|
|                       Gtr II
|                               |-3-| |-3-| |-----3-----|
| E   E   E E E E  E  E   E E   E E E E E E E   E     a E
|-----------------------|---------4-----3-------2---------|
|---------9-------------|---------------------------------|
|-8-------9-------------|---2s==4---4-3---3-2---------0h1-|
|-x-------9-------------|---------------------------------|
|-9-----------9-9-11-11-|---------------------------------|
|-7---7-----7-7-7--7--7-|---------------------------------|


                      Outro
       D.S. al Coda    &
      F#  G    G#      E
  E E E E E E  E E     W
  | | | | | |  | |
  / / / / / /  / /

                       Gtrs I, II
  E E E E E E  E E     E E E   E   E   E   E   E
|-------------------||-------------------------------|
|-------------------||-------------------------------|
|-------------------||-------------------------------|
|-2-2-4-4-5-5--6----||-------------------------------|
|----------------0--||-2-2-4---4---5---5---4---4-----|
|-------------------||-0-0-0---0---0---0---0---0-----|
|
|                      Gtr IV
|                          |--3--| |--3--| |---3---|
| E E E E E Q.         E E E E   E E E   E E E   a E
|-0-----------------||-------4-------3-------2-------|
|-------------------||-------------------------------|
|---1-3---4---------||---2s4-----4-3-----3-2-----0h1-|
|-----4---5---------||-------------------------------|
|-----4---5---------||-------------------------------|
|-----2---3---------||-------------------------------|


  W
        |-3-| |-3-| |-3-|
  E E a E E E E E E S S S a E
|-----------------------------|
|-----------------------------|
|-----------------------------|
|---------------2-------------|
|---------0-1-2---2-0h1p0-----|
|-0-0-3s4-----------------3p0-|
|
| Q     Q     Q     E       E
|-0-----2-----3-----4---------|
|-------x-----x-----x---------|
|-------2-----3-----4---------|
|-----------------------------|
|-----------------------------|
|-----------------------------|


  B
                                                            |-3-|
  E   E   E   E   E   E   E   E     E   E   E   E   E   E   E E E
|---------------------------------|-------------------------------|
|---------------------------------|-------------------------------|
|---------------------------------|---------------------------0---|
|-4---4---6---6---4---4---2---2---|-4---4---6---6---4---4---6---2-|
|-2---2---2---2---2---2---2---2---|-2---2---2---2---2---2---2-----|
|---------------------------------|-------------------------------|
|
| |--3--| |--3--| |--3--| |--3--|   |--3--| |--3--| |--3--| |-3-|
| E E   E E E   E E E   E E E   E   E E   E E E   E E E   E E E E
|---------------------------------|-------------------------------|
|-x-x---x-x-x---x-x-x---x-x-x---x-|-x-x---x-x-x---x-x-x---x-x-x-x-|
|-x-x---x-x-x---x-x-x---x-x-x---x-|-x-x---x-x-x---x-x-x---x-x-x-x-|
|---------------------------------|-------------------------------|
|---------------------------------|-------------------------------|
|---------------------------------|-------------------------------|


  E
                                        |-3-| |-3-| |-3-|
  E E E   E   E   E   E   E       E E a E E E E E E S S S a E
|-------------------------------|-----------------------------|
|-------------------------------|-----------------------------|
|-------------------------------|-----------------------------|
|-------------------------------|---------------2-------------|
|-2-2-4---4---5---5---4---4-----|---------0-1-2---2-0h1p0-----|
|-0-0-0---0---0---0---0---0-----|-0-0-3s4-----------------3p0-|
|
|     |--3--| |--3--| |---3---|
| E E E E   E E E   E E E   a E   Q     Q     Q     E       E
|-------4-------3-------2-------|-0-----2-----3-----4---------|
|-------------------------------|-------x-----x-----x---------|
|---2s4-----4-3-----3-2-----0h1-|-------2-----3-----4---------|
|-------------------------------|-----------------------------|
|-------------------------------|-----------------------------|
|-------------------------------|-----------------------------|


  B
  E   E   E   E   E   E   E   E
|---------------------------------|
|---------------------------------|
|---------------------------------|
|-4---4---6---6---4---4---2---2---|
|-2---2---2---2---2---2---2---2---|
|---------------------------------|
|
| |--3--| |--3--| |--3--| |--3--|
| E E   E E E   E E E   E E E   E
|---------------------------------|
|-x-x---x-x-x---x-x-x---x-x-x---x-|
|-x-x---x-x-x---x-x-x---x-x-x---x-|
|---------------------------------|
|---------------------------------|
|---------------------------------|


  B7            N.C.                               E7+9
  Gtr I
  E Q.   H      E E     E E     E a E E E   E E E  E +H
|-------------|---3b3.5-0-------0---------|-----------------:
|-------------|-----------3b3.5-------3---|-----------------:
|-------------|-------------------2s4---2-|-0---------------:
|-4-----------|---------------------------|---2----2-(2)----:
|-2-----------|---------------------------|-----2-----------:
|-------------|---------------------------|-----------------:
|
| Gtr II
| E Q.   H      E E     E E     E a E E E   E E E  E +H
|-------------|---3b3.5-0-------0---------|-----------------:
|-------------|-----------3b3.5-------3---|-----------------:
|-------------|-------------------2s4---2-|-0---------------:
|-4-----------|---------------------------|---2-------------:
|-2-----------|---------------------------|-----2-----------:
|-------------|---------------------------|--------0-(0)----:
|
| Gtr IV
| E Q.   H      E E     E E     E a E E E   E E E  E +H
|-2-----------|---3b3.5-0-------0---------|-----------------:
|-x-----------|-----------3b3.5-------3---|--------8-(8)----:
|-2-----------|-------------------2s4---2-|-0------7-(7)----:
|-------------|---------------------------|---2----6-(6)----:
|-------------|---------------------------|--------x--------:
|-------------|---------------------------|-----3/-0-(0)----:


 Free Time
                       |-3--|
  +H      Q  S  S E    E  E E +H.        E  Q.    H
|------------9h12p9-:--9s=8s7-(7)------:-7\------------*|
|--------/9---------:--9S=8S7-(7)------:-7\------------*|
|-------------------:------------------:---------------*|
|-(2)---------------:------------------:---------------*|
|-------------------:------------------:---------------*|
|-------------------:------------------:---------------*|
|
| +H      H           +W                 E  Q.    H
|-------------------:------------------:---------------*|
|-------------------:------------------:---------------*|
|-------------------:------------------:---------------*|
|-------------------:------------------:-2-------------*|
|-------------------:------------------:-2-------------*|
|-(0)-----0---------:-(0)--------------:-0-------------*|
|
| +W                  +W                 E  E  Q  H
|-------------------:------------------:-7\------------*|
|-(8)---------------:-(8)--------------:-7\------------*|
|-(7)---------------:-(7)--------------:-7\------------*|
|-(6)---------------:-(6)--------------:---------------*|
|-------------------:------------------:----2----------*|
|-(0)---------------:-(0)--------------:----0----------*|




--------------------------------------------------------------------------------


Duration Legend
---------------
W - whole; H - half; Q - quarter; E - 8th; S - 16th; T - 32nd; X - 64th; a - acciaccatura
+ - note tied to previous; . - note dotted; .. - note double dotted
Uncapitalized letters represent notes that are staccato (1/2 duration)
Irregular groupings are notated above the duration line
Duration letters will always appear directly above the note/fret number it represents the
duration for.  Duration letters with no fret number below them represent rests.  Multi-
bar rests are notated in the form Wxn, where n is the number of bars to rest for.  Low
melody durations appear below the staff

Tablature Legend
----------------
 h   - hammer-on
 p   - pull-off
 b   - bend
 pb  - pre-bend
 r   - bend release (if no number after the r, then release immediately)
 /\  - slide into or out of (from/to "nowhere")
 s   - legato slide
 S   - shift slide
 - natural harmonic
[n]  - artificial harmonic
n(n) - tapped harmonic
 ~   - vibrato
 tr  - trill
 T   - tap
 TP  - trem. picking
 PM  - palm muting
\n/  - tremolo bar dip; n = amount to dip
 \n  - tremolo bar down
 n/  - tremolo bar up
/n\  - tremolo bar inverted dip
 =   - hold bend; also acts as connecting device for hammers/pulls
 <> - volume swell (louder/softer)
 x   - on rhythm slash represents muted slash
 o   - on rhythm slash represents single note slash

Misc Legend
-----------
 |  - bar
||  - double bar
||o - repeat start
o|| - repeat end
*|  - double bar (ending)
 :  - bar (freetime)
 $  - Segno
 &  - Coda
Tempo markers -  = BPM(8/16=s8/s16), where s8 = swing 8ths, s16 = swing 16ths



--------------------------------------------------------------------------------


Добавлено: 28.11.2013
Другие материалы по этой песне:

Страница создана 19.09.2013
http://primanota.ru/kenny-wayne-shepherd/let-me-up-ive-had-enough-chords.htm
Привет, Гость.
Предлагаем пройти революционный курс по гитаре.
Подарок от PrimaNota.Ru, забирай!