PrimaNota.ru - самый крупный в мире бесплатный архив песенных текстов, аккордов, табулатур и нот


Kenny Wayne Shepherd - Ledbetter Heights - таба, видео

Регистрация Запомнить меня
Войти через:  Facebook Google Twitter Vk Yandex Mail.ru

Kenny Wayne Shepherd - Ledbetter Heights - таба, видео

Печатать
Просмотров: 135
Авторы музыки: Kenny Wayne Shepherd

|----------------------------------------------|
|----8-8-8--------------8-8-8------------------|
|----7-7-7--------------7-7-7------------------|
|----6-6-6--------------6-6-6------------------|
|----7-7-7------5---5H7-7-7-7-----5----5H7P5---|
|-0---------5H7---7-----------5H7---7--------7-|

|----------------------------------------------|
|----8-8-8--------------8-8-8------------------|
|----7-7-7--------------7-7-7------------------|
|----6-6-6--------------6-6-6------------------|
|----7-7-7------5---5H7-7-7-7-----5----5H7P5---|
|-0---------5H7---7-----------5H7---7--------7-|

|------------------------------------------------|
|----8-8-8----------------8-8-8------------------|
|----6-6-6----------------6-6-6------------------|
|----7-7-7------5----5H7--7-7-7-------5--5H7P5---|
|----0-0-0--5H7---7-------0-0-0---5H7--7-------7-|
|-0----------------------------------------------|

|----------------------------------------------|
|----8-8-8--------------8-8-8------------------|
|----7-7-7--------------7-7-7------------------|
|----6-6-6--------------6-6-6------------------|
|----7-7-7------5---5H7-7-7-7-----5----5H7P5---|
|-0---------5H7---7-----------5H7---7--------7-|

|----------------------------------------------------------------|
|------------------------8-8-8---------------8-8-8---------------|
|------------------------7-7-7---------------7-7-7---------------|CONTINUE
|---------------7---7H9--6-6-6------5---5H7--6-6-6---------------|
|-10-10-10--7H9---9------0-0-0--5H7---7------7-7-7------5---5H7--|
|-9--9--9-------------------------------------------5H7---7------|

|----------------------------|
|--------10-10-10-10-10-10---|
|--------9--9--9--9--9--9----|REPEAT ALL ONCE
|--------8--8--8--8--8--8----|
|-7(/)9--9--9--9--9--9--9----|
|----------------------------|

-----------------------------------------------------------------------------

OPENING SOLO, THIS PART IS PLAYED VERY FAST:

|------0-------0------0---0-------------------------------------|
|-3(/)5--3(/)5---3(/)5-----------------------0-0(/)5VVV---------|
|-------------------------4(/)2P0----0H1P0---------------2-0----|
|----------------------------------2------2------------------2--|
|---------------------------------------------------------------|
|---------------------------------------------------------------|

|----------------------------------------------------7-6-5--------|
|-------3-------3-------3-------3--------4--------5--------8-5----|
|-3(/)4---3(/)4---3(/)4---3(/)4----3(/)5----0(/)6--------------6--|
|-----------------------------------------------------------------|
|-----------------------------------------------------------------|
|-----------------------------------------------------------------|

|-7-6-5-5H6P5-----5----5P3--0----------------------------------------|
|---------------8---5------------------------------------------------|
|---------------------------4(\)2P0----------------------------------|
|-----------------------------------2-0----------------2VV-----------|
|---------------------------------------2-0-0H1P0------------0-1-2VV-|
|-------------------------------------------------0-3------3---------|

|-3-3-3-3------------7-6-5-------5VV---5VV--5VV--5VV----|
|-0-0-0-0---------5---------8--6-----6-----6----6-------|
|-2-2-2-2--0(/)6----------------------------------------|
|-1-1-1-1-----------------------------------------------|
|-2-2-2-2-----------------------------------------------|
|-------------------------------------------------------|

THATS ALL I HAVE FIGURED OUT SO FAR.

H=HAMMER-ON
P=PULL-OFF
/=SLIDE UP
\=SLIDE DOWN
(/)=LEGATO SLIDE UP
(\)=LEGATO SLIDE DOWN
VV=VERBRADO
X=MUTE
(0)=GHOST NOTE
TVV=TRILL
Добавлено: 16.04.2012
Вам также может быть интересно:
Другие материалы по этой песне:
  • Аккорды и текст

Страница создана 16.04.2012
http://primanota.ru/kenny-wayne-shepherd/ledbetter-heights-chords.htm
Привет, Гость.
Предлагаем пройти революционный курс по гитаре.
Подарок от PrimaNota.Ru, забирай!