PrimaNota.ru - самый крупный в мире бесплатный архив песенных текстов, аккордов, табулатур и нот


Kenny Wayne Shepherd - In Too Deep - текст песни, таба, видео

Регистрация Запомнить меня
Войти через:  Facebook Google Twitter Vk Yandex Mail.ru

Kenny Wayne Shepherd - In Too Deep - текст песни, таба, видео

Печатать
Просмотров: 206
Уроки эстрадного вокала в Санкт-Петербурге
Person: Gonzoman

song: In Too Deep

artist: Kenny Wayne Shepherd Band

tab: ===================
|  In Too Deep   | by the Kenny Wayne Shepherd Band
=================== from their 1999 release, Live On.

Tabbed by Gonzoman: [gonzoman_99@yahoo.com]
Visit the most comprehensive blues guitar tab page on the net!
------->  www.blues-guitar.homepage.com  <------------------

All right, I got tired of waiting for somebody else to post this stuff,
so I tabbed it out myself.  My hope is to get all the stuff on KWS' new
album on paper soon, but we'll see how I do....

I've done the best I could tabbing out the main riffs and such, but the
solos I'm not even gonna try for.  If someone is feeling froggy enough
to actually get them right, e-mail me and I'll add it on.  I've tried
to add references to the times on the CD when I could.  Listen to the
recording for a better idea of what's here....)

All Guitars Tune Down 1/2 Step (Eb Ab Db Gb Bb Eb)
Chords Listed are Actual Chords, Not Relative to Tuning
(i.e. although you're playing an A, it is actually Ab and is written as
such)

Riff #1 
e|------------------------------------------5--5-5-|
B|------------------------------------------5--5-5-|
G|-------5---------5--7b7p5--------5--------5--5-5-| 
D|---5h7---5---7 ------------7--5----5--7----------|
A|-------------------------------------------------|
E|-------------------------------------------------|

Riff #2                                       <---- 0:25 on the CD
  "hide... cause I'm in too deep..."
    B                A       Ab
e|--8----------------6-------5----------------------------------|
B|--8----------------6-------5---(the last (Ab) chord occurs----|
G|--9----------------7-------6----at the same time Riff#1-------| 
D|--10---------------8-------7----starts over, so have a second-|
A|--10---------------8-------7----guitar play it or omit it)----|
E|--8----------------6-------5----------------------------------|

Riff #3
e|------------------------------5--5-5-------------|
B|------------------------------5--5-5-------------|
G|-------5h7-----5h7-----5------5--5-5-------------| 
D|---5h7-----5h7-----5h7---5-7---------------------|
A|-------------------------------------------------|
E|-------------------------------------------------|

Riff#4
e|------------------------------------------7--7-7-|
B|------------------------------------------7--7-7-|
G|-------7---------9--9b9p7--------7--------7--7-7-| 
D|---7h9---7---9 ------------9--7----7--9----------|
A|-------------------------------------------------|
E|-------------------------------------------------|

Riff#5
e|------------------------------------------3--3-3-|
B|------------------------------------------3--3-3-|
G|-------3---------5--5b5p3--------3--------3--3-3-| 
D|---3h5---3---5 ------------5--3----3--5----------|
A|-------------------------------------------------|
E|-------------------------------------------------|

Riff#6
e|-------------------------------------------------|
B|-------------------------------------------------|
G|-------3---------5--5b5p3--------3---------------| 
D|---3h5---3---5 ------------5--3----3--5---5---6--|
A|-------------------------------------------------|
E|-------------------------------------------------|

INTRO: (Riff #1) x2

VERSE:
(Riff#1)
Everybody's scared that there's a madman on the run,
(Riff #1)
Stumbling through the wreckage like a blind man with a gun.
(Riff #2)
No where to hide..... I'm in too deep.
(Riff #1)
(Riff #2)
Can't see the light.... cause I'm in too deep...
(Riff #3) x2
Over my head.

Caught up in the hurricane that never seems to end,        
Hard to know the devil when he looks like your best friend.
No where to hide.... I'm in too deep.
Can't see the light, I'm in too deep... over my head...

BRIDGE: (Barre Chords) (Actual Sounding Chords)
Eb                                         Db     B 
Oh... I should have known, but I can't let go...
          A      Riff #1 x2
Cause I'm in too deep.... over my head.

((((OBLIGATORY SOLO SECTION))))   <---- 1:42 on CD

Backing Riffs are as follows....

(Riff#4) x2
(Riff#5) x1
(Riff#6) x1
(Riff#3) Over my Head... (Riff#3)

VERSE: (Verse Riffs Again)        <---- 2:11 on CD
Oh, soon call somebody the asylum under seige,
The inmates took a hostage I'll be damned if it's not me.
Nowhere to hide.... cause I'm in too deep.
Bury the light... cause I'm in too deep.
(Riff#2)                              (Riff#1)
Can't see the light.... In too deep.
(Riff#2)                              (Riff#3)
Bury the light... no... I'm in too deep... 
            (Riff#3)
I'm over my head...
         (Riff#3)
Over my head...
         (Riff#3)
Over my head...

(End hard on the last note of Riff#3)

And that's all there is to it... Enjoy!

+============================================+
|  Visit the most comprehensive blues guitar |
|         tab page on the net at             |  HELP EVER, HURT NEVER.
|                                            |  
|     www.blues-guitar.homepage.com          |  Keep The blues in your 
|                                            |  soul and the strings 
| for hundreds of blues tabs, and more from  |  under your fingers!  
|   Kenny Wayne Shepherd Band's new album!   |
+============================================+

Добавлено: 13.07.2012
Другие материалы по этой песне:
  • Аккорды и текст

Страница создана 13.07.2012
http://primanota.ru/kenny-wayne-shepherd/in-too-deep-chords.htm
Привет, Гость.
Предлагаем пройти революционный курс по гитаре.
Подарок от PrimaNota.Ru, забирай!