PrimaNota.ru - самый крупный в мире бесплатный архив песенных текстов, аккордов, табулатур и нот


Kenny Wayne Shepherd - I Found Love When I Found You - текст песни, таба, видео

Регистрация Запомнить меня
Войти через:  Facebook Google Twitter Vk Yandex Mail.ru

Kenny Wayne Shepherd - I Found Love When I Found You - текст песни, таба, видео

Печатать
Просмотров: 112
Tuning:  Standard

Guitar 1--Light Distortion w/Phaser or Chorus Flanger???
Guitar 2--Light Distortion w/Light Reverb
Guitar 3--Clean w/ Delay

You can play this song with 1 guitar, but this is how I think it is recorded.


  Verse--Guitar 1
e|--0------0-----0----0--0---|
B|--0---0----0---3----3--2---|
G|--1------------2----2--2---|
D|--2------------0-----------|
A|--2------------------------|
E|--0------------------------|

 Chorus 1--Guitar 1
e|--3--------5------0----|
B|--3--------5------0----|
G|--0--------2------1----| First Time, Back to Verse,
D|--0--------2------2----| Second Time, To Bridge
A|--x--------0------2----|
E|--3---------------0----|

 Bridge--Guitar 1
e|-0----0--0--0--0-0--0-0-0-0-0-0-0-0--------------------------------------|
B|-0----3--3--3--3-3--3-3-3-3-3-3-3-3-----3--3--3--3---------------5-5-5-5-|
G|-1----1--1--1--1-1--1-1-1-1-1-1-1-1-----2--2--2--2--2--2--2--2---4-4-4-4-|
D|-2----2--2--2--2-2--2-2-2-2-2-2-2-2-----0--0--0--0--2--2--2--2---6-6-6-6-|
A|-2----2--2--2--2-2--2-2-2-2-2-2-2-2-----------------0--0--0--0---7-7-7-7-|
E|-0----0--0--0--0-0--0-0-0-0-0-0-0-0------------------------------0-0-0-0-|

e|----------------------------------------------------------------|
B|-5-5-5-5---3--3--3--3----------------5-5-5-5-5-5-5--4-----------|
G|-4-4-4-4---2--2--2--2---2--2--2--2---4-4-4-4-4-4-4--4-----------|
D|-6-6-6-6---0--0--0--0---2--2--2--2---4-4-4-4-4-4-4--4-----------|
A|-7-7-7-7----------------0--0--0--0---2-2-2-2-2-2-2--2-----------| To Solo
E|-0-0-0-0-----------------------------------------------------0--|


 Solo--Guitar 2                                             Rake[-----------|
e|--------------------------------------7-----12--14--16--17--19-----16-17--|
B|---------0-----------------5--5--7/9-----------------------------x--------|
G|-----------------4--4--4/6--------------------------------------x---------|
D|------2-----4/6-----------------------------------------------------------|
A|-2/4----------------------------------------------------------------------|
E|--------------------------------------------------------------------------|

e|--17p16p14--14-16--16p14p12--12h14p12p9--9-12-9h12p9---------------------|
B|------------------------------------------------------9h12p9---------9---|
G|----------------------------------------------------------------9-11---9-|
D|-------------------------------------------------------------------------|
A|-------------------------------------------------------------------------|
E|-------------------------------------------------------------------------|

e|-------------------------------------------------------------------------|
B|-------------------------------------------------------------------------|
G|-------------------------------------------------------------------9b11--|
D|-9h11-9h11p9----------------------------------9-----9h11--9--9h11--------|
A|--------------9h11p9\7--7-----7b----7---9/11-----11----------------------|
E|---------------------------9------9--------------------------------------|

e|--------------------------12------12------12------12-----12--------------|
B|-------------------------------------------------------------------------|
G|--9B11--9-----9-----11/13-----13------13------13------13----13-13\11--9--|
D|-----------11---11-------------------------------------------------------|
A|-------------------------------------------------------------------------|
E|-------------------------------------------------------------------------|


  Guitar 3--Outro
e|-9--12---9h12p9----------------------------------------------------------|
B|-----------------9--12--9h12p9-------------------------------------------|
G|-------------------------------9--11--9h11p9-----------------------------|
D|----------------------------------------------9--11--9h11p9--------------|
A|-------------------------------------------------------------11\9--7---7-|
E|---------------------------------------------------------------------9---|


e|-------------|        --------<5>*-----|
B|-------------|        -----------------|
G|--------9----|        -----------------|
D|------9------|        -----------------|
A|-9/11--------|        -----------------|
E|-------------|        -----------------|
                             *Add this to the end if you want to.  I do when playing it for people.
Добавлено: 18.06.2012
Другие материалы по этой песне:

Страница создана 15.04.2012
http://primanota.ru/kenny-wayne-shepherd/i-found-love-when-i-found-you-chords.htm
Привет, Гость.
Предлагаем пройти революционный курс по гитаре.
Подарок от PrimaNota.Ru, забирай!