PrimaNota.ru - самый крупный в мире бесплатный архив песенных текстов, аккордов, табулатур и нот


Kenny Wayne Shepherd - Honky Tonk - таба, бас-таба, видео

Регистрация Запомнить меня
Войти через:  Facebook Google Twitter Vk Yandex Mail.ru

Kenny Wayne Shepherd - Honky Tonk - таба, бас-таба, видео

Печатать
Просмотров: 268
Уроки эстрадного вокала в Санкт-Петербурге
-----------------------------------------------------------------------------
             HONKY TONK - Kenny Wayne Shepherd ft. Buddy Flett
-----------------------------------------------------------------------------
Tabbed by: Nate S.
Email: stonewall_39@hotmail.com

Tuning: Gtr. 1 (Buddy Flett) DADF#AD - open D
        Gtr. 2 (KWS) DADGBE - drop D

Excellent song by Buddy Flett off of Kenny's "10 Days Out" album.  There are probably a 
notes here and there that are missing or extra, but overall it should mostly be there.  
haven't finished the solo as of yet.  Please rate and enjoy!!

Intro
                                                  pm-  sl---------
D ---------------------------------0-----------------0----------12-|
A ---------------------------00-00---3--------------------------12-|
F#---------------------------00-00-----1b--------------12\11-------|
D ---------------------------00-00---------3-0---------------12----|
A -0020020-3353335-5575557-0020020-------------3--0----------------|
D -0000000-3333333-5555555-0000000----------------0----------------|
                                                                   |
                                                                   |
e -0000000---------3333333-0000-00---0-0-----0-0-----0-0-----0-0---|
B -3333333-1111111-3333333-3333-33---3-3-----3-3-----3-3-----3-3---|
G -2222222-2222222-0000000-2222-22---2-2-----2-2-----2-2-----2-2---|
D -0000000-3333333-0000000-0000-00---0-0-----0-0-----0-0-----0-0---|
A ---------3333333-2222222---------x-----x-x-----x-x-----x-x-----x-|
D ---------------------------------x-----x-x-----x-x-----x-x-----x-|

                  pm-  sl---------
D -0-----------------0----------12-0-------------|
A ---3--------------------------12---3-----------|
F#-----1b--------------12\11-----------1b--------|
D ---------3-0---------------12------------3-0---|
A -------------3--0----------------------------3-|
D ----------------0------------------------------|
                                                 |
                                                 |
e ---0-0-----0-0-----0-0-----0-0-----0-0-----0-0-|
B ---3-3-----3-3-----3-3-----3-3-----3-3-----3-3-|
G ---2-2-----2-2-----2-2-----2-2-----2-2-----2-2-|
D ---0-0-----0-0-----0-0-----0-0-----0-0-----0-0-|
A -x-----x-x-----x-x-----x-x-----x-x-----x-x-----|
D -x-----x-x-----x-x-----x-x-----x-x-----x-x-----|

Verse 1
   pm    pm-     pm-     pm
D ---0-0-----0-0-----0-0-------------3---0-------------------------|
A ---0-0-----0-0-----0-0-------------------3-0---------------------|
F#---0-0-----0-0-----0-0-----------------------1-------------------|
D ---0-0-----0-0-----0-0---------------------------3--0---0--------|
A ---0-0-----0-0-----0-0----2-3-4-----------------------3---2-3-4--|
D -0-0-0-0-0-0-0-0-0-0-0-0---------0~------------------------------|
                                                                   |
                                                                   |
e ---0-0-----0-0-----0-0-------------0-0-----0-0-----0-0-----------|
B ---3-3-----3-3-----3-3-------------3-3-----3-3-----3-3-----------|
G ---2-2-----2-2-----2-2-------------2-2-----2-2-----2-2-----------|
D ---0-0-----0-0-----0-0-------------0-0-----0-0-----0-0-----------|
A -x-----x-x-----x-x-----x--2-3-4--x-----x-x-----x-x-----x--2-3-4--|
D -x-----x-x-----x-x-----x---------x-----x-x-----x-x-----x---------|

   pm    pm-     pm-     pm
D ---0-0-----0-0-----0-0-------------3---0-------------------------|
A ---0-0-----0-0-----0-0-------------------3-0---------------------|
F#---0-0-----0-0-----0-0-----------------------1-------------------|
D ---0-0-----0-0-----0-0---------------------------3--0---0-2-3-4--|
A ---0-0-----0-0-----0-0----2-3-4-----------------------3----------|
D -0-0-0-0-0-0-0-0-0-0-0-0---------0~------------------------------|
                                                                   |
                                                                   |
e ---0-0-----0-0-----0-0-------------0-0-----0-0-----0-0-----------|
B ---3-3-----3-3-----3-3-------------3-3-----3-3-----3-3-----------|
G ---2-2-----2-2-----2-2-------------2-2-----2-2-----2-2-----------|
D ---0-0-----0-0-----0-0-------------0-0-----0-0-----0-0----2-3-4--|
A -x-----x-x-----x-x-----x--2-3-4--x-----x-x-----x-x-----x---------|
D -x-----x-x-----x-x-----x---------x-----x-x-----x-x-----x---------|

   pm    pm-     pm-     pm          sl--------------------        |
D ---5-5-----5-5-----5-5----------------------------------5--------|
A ---5-5-----5-5-----5-5-------------/8------8\7--5\4-----5--------|
F#---5-5-----5-5-----5-5-------------/8------8\7--5\4--------------|
D ---5-5-----5-5-----5-5----2-3-4----------------------5-----------|
A ---5-5-----5-5-----5-5------------------------------------2-3-4--|
D -5-5-5-5-5-5-5-5-5-5-5-5--------5--------------------------------|
                                                                   |
                                                                   |
e ---3-3-----3-3-----3-3-------------3-3-----3-3-----3-3-----------|
B ---3-3-----3-3-----3-3-------------3-3-----3-3-----3-3-----------|
G ---0-0-----0-0-----0-0-------------0-0-----0-0-----0-0-----------|
D ---0-0-----0-0-----0-0----2-3-4----0-0-----0-0-----0-0-----------|
A -x-2-2-x-x-2-2-x-x-2-2-x---------x-2-2-x-x-2-2-x-x-2-2-x--2-3-4--|
D -x-----x-x-----x-x-----x---------x-----x-x-----x-x-----x---------|

   pm    pm-     pm-     pm
D ---0-0-----0-0-----0-0-------------3---0-------------------------|
A ---0-0-----0-0-----0-0-------------------3-0---------------------|
F#---0-0-----0-0-----0-0-----------------------1-------------------|
D ---0-0-----0-0-----0-0---------------------------3--0---0-----0--|
A ---0-0-----0-0-----0-0----2-3-4-----------------------3---0-3----|
D -0-0-0-0-0-0-0-0-0-0-0-0---------0~------------------------------|
                                                                   |
                                                                   |
e ---0-0-----0-0-----0-0-------------0-0-----0-0-----0-0-----------|
B ---3-3-----3-3-----3-3-------------3-3-----3-3-----3-3-----------|
G ---2-2-----2-2-----2-2-------------2-2-----2-2-----2-2-----------|
D ---0-0-----0-0-----0-0-------------0-0-----0-0-----0-0--------0--|
A -x-----x-x-----x-x-----x--2-3-4--x-----x-x-----x-x-----x--0-3----|
D -x-----x-x-----x-x-----x---------x-----x-x-----x-x-----x---------|

Chorus 1
                                                  pm-  sl---------
D -----------------------------------0---------------0----------12-|
A -------------------------------------3------------------------12-|
F#---------------------------------------1b------------12\11-------|
D ---------------------------------0--------3-0--------------12----|
A -0020020-3353335-5575557-002-0-3--------------3-0----------------|
D -0000000-3333333-5555555-000--------------------0----------------|
                                                                   |
                                                                   |
e -0000000---------3333333-000-------0-0-----0-0-----0-0-----0-0---|
B -3333333-1111111-3333333-333-------3-3-----3-3-----3-3-----3-3---|
G -2222222-2222222-0000000-222-------2-2-----2-2-----2-2-----2-2---|
D -0000000-3333333-0000000-000-----0-0-0-----0-0-----0-0-----0-0---|
A ---------3333333-2222222-----0-3-------x-x-----x-x-----x-x-----x-|
D ---------------------------------------x-x-----x-x-----x-x-----x-|

                  pm-  sl---------
D -0-----------------0----------12-0-------------|
A ---3--------------------------12---3-----------|
F#-----1b--------------12\11-----------1b--------|
D ---------3-0---------------12------------3-0---|
A -------------3--0----------------------------3-|
D ----------------0------------------------------|
                                                 |
                                                 |
e ---0-0-----0-0-----0-0-----0-0-----0-0-----0-0-|
B ---3-3-----3-3-----3-3-----3-3-----3-3-----3-3-|
G ---2-2-----2-2-----2-2-----2-2-----2-2-----2-2-|
D ---0-0-----0-0-----0-0-----0-0-----0-0-----0-0-|
A -x-----x-x-----x-x-----x-x-----x-x-----x-x-----|
D -x-----x-x-----x-x-----x-x-----x-x-----x-x-----|

Verse 2
   pm    pm-     pm-     pm
D ---0-0-----0-0-----0-0-------------3---0-------------------------|
A ---0-0-----0-0-----0-0-------------------3-0---------------------|
F#---0-0-----0-0-----0-0-----------------------1-------------------|
D ---0-0-----0-0-----0-0---------------------------3--0---0--------|
A ---0-0-----0-0-----0-0----2-3-4-----------------------3---2-3-4--|
D -0-0-0-0-0-0-0-0-0-0-0-0---------0~------------------------------|
                                                                   |
                                                                   |
e ---0-0-----0-0-----0-0-------------0-0-----0-0-----0-0-----------|
B ---3-3-----3-3-----3-3-------------3-3-----3-3-----3-3-----------|
G ---2-2-----2-2-----2-2-------------2-2-----2-2-----2-2-----------|
D ---0-0-----0-0-----0-0-------------0-0-----0-0-----0-0-----------|
A -x-----x-x-----x-x-----x--2-3-4--x-----x-x-----x-x-----x--2-3-4--|
D -x-----x-x-----x-x-----x---------x-----x-x-----x-x-----x---------|

   pm    pm-     pm-     pm
D ---0-0-----0-0-----0-0-------------3---0-------------------------|
A ---0-0-----0-0-----0-0-------------------3-0---------------------|
F#---0-0-----0-0-----0-0-----------------------1-------------------|
D ---0-0-----0-0-----0-0---------------------------3--0---0-2-3-4--|
A ---0-0-----0-0-----0-0----2-3-4-----------------------3----------|
D -0-0-0-0-0-0-0-0-0-0-0-0---------0~------------------------------|
                                                                   |
                                                                   |
e ---0-0-----0-0-----0-0-------------0-0-----0-0-----0-0-----------|
B ---3-3-----3-3-----3-3-------------3-3-----3-3-----3-3-----------|
G ---2-2-----2-2-----2-2-------------2-2-----2-2-----2-2-----------|
D ---0-0-----0-0-----0-0-------------0-0-----0-0-----0-0----2-3-4--|
A -x-----x-x-----x-x-----x--2-3-4--x-----x-x-----x-x-----x---------|
D -x-----x-x-----x-x-----x---------x-----x-x-----x-x-----x---------|

   pm    pm-     pm-     pm          sl--------------------
D ---5-5-----5-5-----5-5----------------------------------5--------|
A ---5-5-----5-5-----5-5-------------/8------8\7--5\4-----5--------|
F#---5-5-----5-5-----5-5-------------/8------8\7--5\4--------------|
D ---5-5-----5-5-----5-5----2-3-4----------------------5-----------|
A ---5-5-----5-5-----5-5------------------------------------2-3-4--|
D -5-5-5-5-5-5-5-5-5-5-5-5--------5--------------------------------|
                                                                   |
                                                                   |
e ---3-3-----3-3-----3-3-------------3-3-----3-3-----3-3-----------|
B ---3-3-----3-3-----3-3-------------3-3-----3-3-----3-3-----------|
G ---0-0-----0-0-----0-0-------------0-0-----0-0-----0-0-----------|
D ---0-0-----0-0-----0-0----2-3-4----0-0-----0-0-----0-0-----------|
A -x-2-2-x-x-2-2-x-x-2-2-x---------x-2-2-x-x-2-2-x-x-2-2-x--2-3-4--|
D -x-----x-x-----x-x-----x---------x-----x-x-----x-x-----x---------|

   pm    pm-     pm-     pm
D ---0-0-----0-0-----0-0-------------3---0-------------------------|
A ---0-0-----0-0-----0-0-------------------3-0---------------------|
F#---0-0-----0-0-----0-0-----------------------1-------------------|
D ---0-0-----0-0-----0-0---------------------------3--0---0-----0--|
A ---0-0-----0-0-----0-0----2-3-4-----------------------3---0-3----|
D -0-0-0-0-0-0-0-0-0-0-0-0---------0~------------------------------|
                                                                   |
                                                                   |
e ---0-0-----0-0-----0-0-------------0-0-----0-0-----0-0-----------|
B ---3-3-----3-3-----3-3-------------3-3-----3-3-----3-3-----------|
G ---2-2-----2-2-----2-2-------------2-2-----2-2-----2-2-----------|
D ---0-0-----0-0-----0-0-------------0-0-----0-0-----0-0--------0--|
A -x-----x-x-----x-x-----x--2-3-4--x-----x-x-----x-x-----x--0-3----|
D -x-----x-x-----x-x-----x---------x-----x-x-----x-x-----x---------|

Chorus 2

D -----------------------------------0------------|
A -------------------------------------3----------|
F#---------------------------------------1b-------|
D ---------------------------------0--------3-0---|
A -0020020-3353335-5575557-002-0-3--------------3-|
D -0000000-3333333-5555555-000--------------------|
                                                  |
                                                  |
e -0000000---------3333333-000-------0-0-----0-0--|
B -3333333-1111111-3333333-333-------3-3-----3-3--|
G -2222222-2222222-0000000-222-------2-2-----2-2--|
D -0000000-3333333-0000000-000-----0-0-0-----0-0--|
A ---------3333333-2222222-----0-3-------x-x------|
D ---------------------------------------x-x------|

Solo...its getting there, I only have bits and pieces as of right now

Chorus 3/Ending

D ---------------------------------|
A ---------------------------00-00-|
F#---------------------------00-00-|
D ---------------------------00-00-|
A -0020020-3353335-5575557-0020020-|
D -0000000-3333333-5555555-0000000-|
                                   |
                                   |
e -0000000---------3333333-0000-00-|
B -3333333-1111111-3333333-3333-33-|
G -2222222-2222222-0000000-2222-22-|
D -0000000-3333333-0000000-0000-00-|
A ---------3333333-2222222---------|
D ---------------------------------|

                                                  pm-  sl---------
D -----------------------------------0---------------0----------12-|
A -------------------------------------3------------------------12-|
F#---------------------------------------1b------------12\11-------|
D ---------------------------------0--------3-0--------------12----|
A -0020020-3353335-5575557-002-0-3--------------3-0----------------|
D -0000000-3333333-5555555-000--------------------0----------------|
                                                                   |
                                                                   |
e -0000000---------3333333-000-------0-0-----0-0-----0-0-----0-0---|
B -3333333-1111111-3333333-333-------3-3-----3-3-----3-3-----3-3---|
G -2222222-2222222-0000000-222-------2-2-----2-2-----2-2-----2-2---|
D -0000000-3333333-0000000-000-----0-0-0-----0-0-----0-0-----0-0---|
A ---------3333333-2222222-----0-3-------x-x-----x-x-----x-x-----x-|
D ---------------------------------------x-x-----x-x-----x-x-----x-|

                  pm-  sl---------                    sl---------
D -0-----------------0----------12-0----------------0----------12-|
A ---3--------------------------12---3-------------------------12-|
F#-----1b--------------12\11-----------1b-------------12\11-------|
D ---------3-0---------------12------------3-0--------------12----|
A -------------3--0----------------------------3-0----------------|
D ----------------0------------------------------0----------------|
                                                                  |
                                                                  |
e ---0-0-----0-0-----0-0-----0-0-----0-0-----0-0-----0-0-----0-0--|
B ---3-3-----3-3-----3-3-----3-3-----3-3-----3-3-----3-3-----3-3--|
G ---2-2-----2-2-----2-2-----2-2-----2-2-----2-2-----2-2-----2-2--|
D ---0-0-----0-0-----0-0-----0-0-----0-0-----0-0-----0-0-----0-0--|
A -x-----x-x-----x-x-----x-x-----x-x-----x-x-----x-x-----x-x------|
D -x-----x-x-----x-x-----x-x-----x-x-----x-x-----x-x-----x-x------|

                               sl------
D -0-------------------------------------|
A ---3-------------------------/12-/12~--|
F#-----1b----------------------/12-/12~--|
D ---------3-0---------------------------|
A -------------3--0--2-3-4-5~------------|
D ----------------0-----------0----------|
                                         |
                                         |
e ---0-0-----0-0--------------0~---------|
B ---3-3-----3-3--------------3~---------|
G ---2-2-----2-2--------------2~---------|
D ---0-0-----0-0--------------0~---------|
A -x-----x-x-----------------------------|
D -x-----x-x-----------------------------|
Добавлено: 01.03.2012
Другие материалы по этой песне:
  • Аккорды и текст

Страница создана 01.03.2012
http://primanota.ru/kenny-wayne-shepherd/honky-tonk-chords.htm
Привет, Гость.
Предлагаем пройти революционный курс по гитаре.
Подарок от PrimaNota.Ru, забирай!