PrimaNota.ru - самый крупный в мире бесплатный архив песенных текстов, аккордов, табулатур и нот


Kenny Wayne Shepherd - Chapel Hill Boogie - текст песни, бас-таба, видео

Регистрация Запомнить меня
Войти через:  Facebook Google Twitter Vk Yandex Mail.ru

Kenny Wayne Shepherd - Chapel Hill Boogie - текст песни, бас-таба, видео

Печатать
Просмотров: 173
Уроки эстрадного вокала в Санкт-Петербурге
Artist: Kenny Wayne Shepherd.
Song: Chapel Hill Boogie.
Album: 10 days out(Blues From The Backroads).
Tabbed by: Stonedy.

INTRO
G|---5-8-10-11-10-8-5-------5-8-5-----|
D|-6--------------------5-8-------8-5-|
A|--------------------6---------------|
E|------------------------------------|

G|---7-10-7---5-8-8-------5-8-5------|
D|-8--------6---------5-8-------8-5~-|
A|------------------6----------------|
E|-----------------------------------|
____________________________________________|

G|-------5-8-5------------5-8-5-----|
D|---5-8-------8-5----5-8-------8-5-|
A|-6----------------6---------------|
E|----------------------------------|

G|---5-8-10-11-10-8-5-------5-8-5-----|
D|-6--------------------5-8-------8-5-|
A|--------------------6---------------|
E|------------------------------------|

G|---7-10-7---5-8-8-------5-8-5------|
D|-8--------6---------5-8-------8-5~-|
A|------------------6----------------|
E|-----------------------------------|

play the second part (not the intro) like a thousand times, till the end of the song. 
i hope you like it and good luck playing it.

Please rate and comment.
Добавлено: 03.05.2012
Другие материалы по этой песне:
  • Аккорды и текст

Страница создана 03.05.2012
http://primanota.ru/kenny-wayne-shepherd/chapel-hill-boogie-chords.htm
Привет, Гость.
Предлагаем пройти революционный курс по гитаре.
Подарок от PrimaNota.Ru, забирай!