PrimaNota.ru - самый крупный в мире бесплатный архив песенных текстов, аккордов, табулатур и нот


Kenny Wayne Shepherd - Aberdeen - аккорды и текст, таба, видео

Регистрация Запомнить меня
Войти через:  Facebook Google Twitter Vk Yandex Mail.ru

Kenny Wayne Shepherd - Aberdeen - аккорды и текст, таба, видео

Печатать
Просмотров: 115
Авторы музыки: Bukka White

Aberdeen
Kenny Wayne Shepherd
ABERDEEN-
Kenny Wayne Shepherd
>From the album Ledbetter Heights
Written by Bukka White

Tabbed by Aaron Beyersdorff (all my own work)

Both parts are played with a slide. This song sounds really sweet
and when you realize how easy it is it's a lot of fun.
You really have to listen to it to get the rhythm, though.

Tune to an open Em low to high E-B-E-G#-B-E

For Riff 1, the G# string is pushed down with the index finger
and I play with the slide on my middle finger. Other than Riff 1
and then the similar part on Riff 4 there is no fingering, just
the slide.

The acoustic and electric parts are very similar. If you're determined
enough to learn both parts it's not hard to play around with and figure out.
This is actually kind of a mix of the two.
You just have to play around with it. But this is basically it.

/ = Slide from the nut
\ = Slide off to the nut
~ = Tremolo (just kind of slide it back and forth real fast)

Riff 1:
|-0---0-0-0---0-0-0---0-0-|
|-0---0-0-0---0-0-0---0-0-|
|-0---0-1-0---0-1-0---0-0-|
|-0---0-0-0---0-0-0---0-0-|
|-0---0-0-0---0-0-0---0-0-|
|-0---0-0-0---0-0-0---0-0-|

Riff 2:
|-/5---5-5-5---5-5-5---5-5-5---5-5-5---5-5-5---5-5-5\---/3-/3--0-|
|-/5---5-5-5---5-5-5---5-5-5---5-5-5---5-5-5---5-5-5\---/3-/3--0-|
|-/5---5-5-5---5-5-5---5-5-5---5-5-5---5-5-5---5-5-5\---/3-/3--0-|
|-/5---5-5-5---5-5-5---5-5-5---5-5-5---5-5-5---5-5-5\---/3-/3--0-|
|-/5---5-5-5---5-5-5---5-5-5---5-5-5---5-5-5---5-5-5\---/3-/3--0-|
|-/5---5-5-5---5-5-5---5-5-5---5-5-5---5-5-5---5-5-5\---/3-/3--0-|

Riff 3:
|-/5-5-5-7\-/3-0---0---/5-7\-/3-/3-0-|
|----------------3-------------------|
|------------------------------------|
|------------------------------------|
|------------------------------------|
|------------------------------------|

Riff 4:
|-/5-5-5-5-5-5-/5-5-5--0--/3-/3-/3--0--0-0-0--0-0-0--0-0-0-/12-12-12\-|
|-/5-5-5-5-5-5-/5-5-5--0--/3-/3-/3--0--0-0-0--0-0-0--0-0-0-/12-12-12\-|
|-/5-5-5-5-5-5-/5-5-5--0--/3-/3-/3--0--0-1-0--0-1-0--0-0-0-/12-12-12\-| 
|-/5-5-5-5-5-5-/5-5-5--0--/3-/3-/3--0--0-0-0--0-0-0--0-0-0-/12-12-12\-|
|-/5-5-5-5-5-5-/5-5-5--0--/3-/3-/3--0--0-0-0--0-0-0--0-0-0-/12-12-12\-|
|-/5-5-5-5-5-5-/5-5-5--0--/3-/3-/3--0--0-0-0--0-0-0--0-0-0-/12-12-12\-|

Riff 5:
|-/5-5-5-7\-/3-0-/3-0-/5-5-7\-/3-/3-0-0-0-/3-0-/12~---12-------------\-|
|-/5-5-5-7\-/3-0-/3-0-/5-5-7\-/3-/3-0-0-0-/3-0-/12~------12----------\-|
|-/5-5-5-7\-/3-0-/3-0-/5-5-7\-/3-/3-0-0-0-/3-0-/12~---------11/12----\-|
|-/5-5-5-7\-/3-0-/3-0-/5-5-7\-/3-/3-0-0-0-/3-0-/12~---------------12-\-|
|-/5-5-5-7\-/3-0-/3-0-/5-5-7\-/3-/3-0-0-0-/3-0-/12~------------------\-|
|-/5-5-5-7\-/3-0-/3-0-/5-5-7\-/3-/3-0-0-0-/3-0-/12~------------------\-|

Order:
Go across ->
1. Riff 1- x4 Riff 2- x1 Riff 1- x2 Riff 2- x1 Riff 1- x2 Riff 3- x1
2. Riff 1- x2 Riff 2- x1 Riff 1- x2 Riff 2- x1 Riff 1- x2 Riff 3- x1
3. Riff 1- x2 Riff 4- x2 Riff 3- x1
4. Riff 1- x2 Riff 2- x1 Riff 1- x2 Riff 2- x1 Riff 1- x2 Riff 3- x1
Electric entrance
5. Riff 1- x2 Riff 2- x1 Riff 1- x2 Riff 2- x1 Riff 1- x2 Riff 3- x1
6. Riff 1- x2 Riff 2- x1 Riff 1- x2 Riff 2- x1 Riff 1- x2 Riff 3- x1
   Riff 1- x2 Riff 4- x2 Riff 3- x1
7. Riff 1- x2 Riff 2- x1 Riff 1- x2 Riff 2- x1 Riff 1- x2 Riff 3- x1
8. Riff 1- x2 Riff 4- x2 Riff 3- x1
9. Riff 1- x2 Riff 2- x1 Riff 1- x2 Riff 2- x1 Riff 5- x1

Like I said, this is only the acoustic part and if you're ambitious
enough to try the electric part it's not hard to figure out from
what I have here. I'm prety sure I have all the riff repetitions
right but don't hold me to them. There's a lot of repetition.
By the way, I don't have a slide so I use a piece of
copper pipe. Be resourceful!
     
Добавлено: 07.11.2013
Другие материалы по этой песне:

Страница создана 11.03.2012
http://primanota.ru/kenny-wayne-shepherd/aberdeen-chords.htm
Привет, Гость.
Предлагаем пройти революционный курс по гитаре.
Подарок от PrimaNota.Ru, забирай!