PrimaNota.ru - самый крупный в мире бесплатный архив песенных текстов, аккордов, табулатур и нот


Kenny Loggins - Return To Poohs Corner - таба, видео

Регистрация Запомнить меня
Войти через:  Facebook Google Twitter Vk Yandex Mail.ru

Kenny Loggins - Return To Poohs Corner - таба, видео

Печатать
Просмотров: 61
                  =========================================
                   Kenny Loggins - Return to Pooh's Corner
                  =========================================
             Arranged for Solo Guitar by Brad Smith (12/12/2001)
              rainwarrior@cogeco.ca   http://switch.to/unleaded

Every - represents one sixteenth note
: and . guide where the quarter and eighth note pulses fall
~~~ indicates a triplet (3 sixteenth notes in the place of an eigth)
/ indicates a slide up
A number above the tablature indicated a reccomended barre
Brackets indicate optional notes

  : . : . : . : .    : . : . : . : .    : . : . : . : .    : . : . : . : .
e --0-----0---0--- | 0---0-------0--- | --------0---0--- | ----0---------0- |
B 0---0----------- | ----------0----- | --0-------0----- | --0---0-----0--- |
G 89--8-6---4---2- | --4---1-------1- | ------1-------2- | --------2---2--- |
D ------7---6---4- | --6---2-------2- | 2---4-2---1----- | ------------2--- |
A ---------------- | ---------------- | 4---2---------4- | ----------4----- |
E ---------------- | ---------------- | ---------------- | ---------------- |

  : . : . : . : .    : . : . : . : .
e --0-----0---0-0- | ---------------- |
B 0---0---------2- | ---------------- |
G 89--8-6---4---2- | ---------------- |
D ------7---6----- | ---------------- |
A --------------2- | ---------------- |
E ---------------- | ---------------- |

*=-=-= Verse section begins =-=-=*

  : . : . : . : .    4 . : . : . : .    2 . : . : . : .    0 . : . : . : .
e ----0-------2--- | ----4----------- | ----2----------- | --------0---0--- |
B --0---0---0---0- | ------4-5-4----- | ------------2--- | 0--------------- |
G 1--------------- | ------------6-4- | 2-----2---2---2- | ----1/4---2---2- |
D 2-------1------- | --6------------- | 4-2------------- | ---------------- |
A -------------(2) | --------4------- | --------2------- | --2--/5---4----- |
E 0--------------- | 4--------------- | ---------------- | 0--------------- |

  : . : . : . : .    4 . : . : . : .    2 . : . : . : .    0 . : . : . : .
e ----0-------2--- | ----4----------- | ----2---------2- | ------0--------- |
B --0---0---0---0- | --------5-4----- | ------------2--- | ----0----------- |
G 1--------------- | ------4-----6-4- | 2-----2---2----- | ----1----------- |
D 2-------1------- | --6------------- | 4-2------------- | --2------------- |
A -------------(2) | --------4------- | --------2------- | ---------------- |
E 0--------------- | 4--------------- | ---------------- | 0-----------4-7- |

  4 . : . : . : .    4 . : . : . : .    0 . : . : . : .    2 . : . : ~~~: .
e ------4--------- | ------4--------- | ------0--------- | ------2---------- |
B ----5-------5--- | 4---4-------4--- | 0-----------0--- | ----2---4-242---- |
G --------6---6--- | 4-------4---4--- | ----2---2---2--- | 3-4----------4-2- |
D --6-------6----- | --6-------6----- | --2-------2----- | ----------------- |
A 4--------------- | ---------------- | 0--------------- | --------2-------- |
E ---------------- | 4---------4----- | ---------------- | 2---------------- |
  C#m                G#m                Asus

  0 . : . : . : .    : . : . 2 . : .    0 . : . 4 . : .    2 . : . : . 0 .
e ----0---------0- | ----0-----2---2- | 0--------------- | ---------------- |
B --0---0-----0--- | 0-----0-4---2--- | ------0--------- | ----2---2------- |
G 1--------------- | ---------------- | ----1---------4- | ----2---2------- |
D ----------2----- | --2------------- | --4---------6--- | --2-----------2- |
A ---------------- | --------2---2--- | ---------------- | ------242---24-- |
E 0-------4------- | 2--------------- | 0-------4------- | 2--------------- |

  0 . : . : . : .    : . : . : . : .   
e ----0-------0--- | ----0----------- |
B --0---0-------0- | 0-----0-4---2--- |
G 1---------4----- | ---------------- |
D ---------------- | --2------------- |
A ---------------- | --------2---0--- |
E 0-------4------- | 2--------------- |

  4 . : . : . : .    : . : . : . : .    4 . : . : . : .    0 . : . : . : .
e ---------------- | ------0-----0--- | ---------------- | 0--------------- |
B ------4-----4-5- | ----0-0---0-0--- | ------4-----4-5- | 5---0----------- |
G ----4----------- | --1------------- | ----4----------- | ---------------- |
D --6-------6----- | ---------------- | --6-------6----- | 6-------7---6--- |
A ---------------- | ---------------- | ---------------- | 4--------------- |
E 4-------4------- | 0--------------- | 4-------4------- | ---------------- |
  G#m                EM                 G#m                C#m

  : . : . : . : .    : . : . : . : .    : . : . : . : .    : . : . : . : .
e ----0-------0--- | ----0----------- | 0-----0--------- | 0--------------- |
B ----0-------0--- | ----0-------0--- | 0---------0----- | 0------baby----- |
G ---------------- | ---------------- | 2-------------2- | 2-------noise--- |
D --2-------4----- | --4-------2----- | 4--------------- | 4---------here-- |
A 0-------2------- | --------4------- | 5--------------- | 2--------------- |
E ---------------- | 4-----4--------- | ---------------- | ---------------- |

*=-=-= Verse section ends =-=-=*

Play the verse section again.

  : . : . : . : .    : . : . : . : .    : . : . : . : .    : . : . : . : .
e 2---2-----2----- | 2-3-5-0-----0--- | ----0-------0--- | ---------------- |
B 2-------2------- | 0-----3---0-3/5- | --------3------- | ------3-3--2---- |
G --2-----2------- |(2)-------------- | --0---0---0---0- | ----0---2-----2- |
D 0-----0--------- | 0-----0--------- | ---------------- | --2----------(2) |
A ---------------- | ---------------- | 3--------------- | 0------------(0) |
E ---------------- | ---------------- | ---------------- | ---------------- |

  : . : . : . : .    : . : . : . : .    : . : . : . : .    : . : . : . 4 .
e 2---2-------2--- | 2-3-5-0-----0--- | ----0-----0----- | ------2---0----- |
B 2-------3------- | 0-----3---0-3/5- | --0-----0---0--- | ----0---------0- |
G --2-----2------- |(2)-------------- | 2-----1-------1- | --1------------- |
D 0-----0--------- | 0-----0--------- | ---------------- | 1--------------- |
A ---------------- | ---------------- | ---------------- | ---------------- |
E ---------------- | ---------------- | ---------------- | ---------------- |

  : . : . : . : .    : . : . : . : .
e ----0----------- | ---------------- |
B --0------------- | ---------------- |
G 4/6------------- | ---------------- |  - In the first bar play the 4/6 as
D ------7---6---4- | 4/6------------- |    a sixteenth in length, not an eighth.
A 0--------------- | 0--------------- |
E ---------------- | ---------------- |

Slower

  : . : . : . : .    4 . : . : . : .    2 . : . : . : .    0 . : . : . : .
e ----0-------2--- | ----4----------- | ----2----------- | --------0---0--- |
B --0---0---0---0- | ------4-5-4----- | ------------2--- | 0--------------- |
G 1--------------- | ------------6-4- | 2-----2---2---2- | ----1/4---2---2- |
D 2-------1------- | --6------------- | 4-2------------- | ---------------- |
A -------------(2) | --------4------- | --------2------- | --2--/5---4----- |
E ---------------- | 4--------------- | ---------------- | 0--------------- |


  : . : . : . : .    4 . : . : . : .    2 . : . : . : .    0 . : . : . : .
e ----0-------2--- | ----4----------- | ----2---------2- | 0-----0--------- |
B --0---0---0---0- | --------5-4----- | ------------2--- | ----0----------- |
G 1--------------- | ------4-----6-4- | 2-----2---2----- | ----1----------- |
D 2-------1------- | --6------------- | 4-2------------- | --2------------- |
A -------------(2) | --------4------- | --------2------- | ---------------- |
E ---------------- | 4--------------- | ---------------- | 0-----------4-7- |

  4 . : . : . : .    4 . : . : . : .    0 . : . : . : .    : . : . : . : .
e ------4--------- | ------4--------- | --0-------0----- | 2--------------- |
B ----5-------5--- | 4---4-------4--- | 0---0-2-----2--- | 0--------------- |
G --------6---6--- | 4-------4---4--- | ---------------- | ---------------- |
D --6-------6----- | --6-------6----- | --------4-----4- | 1--------------- |
A 4--------------- | ---------------- | ---------------- |(2)-------------- |
E ---------------- | 4---------4----- | 2-------2------- | ---------------- |
  C#m                G#m                    

Back up to speed

  : . : . : . : .    : . : . : . : .    : . : . : . : .    : . : . : . : .
e ----3-------0--- | ----0---0---2--- | ----0-------0--- | ----0---0---2--- |
B ----0-------3--- | ----1---1---1--- | ----0-----0----- | ----1---0---0--- |
G ------0-------2- | ------2-----2--- | ------0-------0- | ------2-0------- |
D --0-------0----- | --2-----0---0--- | --0-----0------- | --2---------1--- |
A --------2------- | 0--------------- | 2--------------- | 0--------------- |
E 3--------------- | ---------------- | ---------------- | ---------------- |

  : . : . : . : .    : . : . : . : .
e 3-------2------- | 0-----------2--- |
B ----0-------0--- | ----1-------0--- |
G --0---0---0---0- | --0---0---0----- |
D 2-------1------- | --------0------- |
A ---------------- | 3--------------- |
E ---------------- | ---------------- |


  : . : . : . : .    : . : . : . : .    : . : . : . : .    : . : . : . : .
e ----2---------2- | ------3-----3--- | ----2---------2- | 3---2---0------- |
B ------------0--- | ----3-3-----3--- | ------------0--- | 0-------0---3--- |
G --2---2---2----- | --0-------0----- | --2---2---2----- | ---------------- |
D ---------------- | ---------------- | ---------------- | ---------------- |
A 2-------2------- | ---------------- | 2-------2------- | ---------------- |
E ---------------- | 3-------3------- | ---------------- | 3-------3------- |


  : . : . : . : .    : . : . : . : .    : . : . : . : .    : . : . : . : .
e ----0-------0--- | ----2---------0- | ----0-------0--- | ----2---------0- |
B --------------0- | ------0-----0--- | --------------0- | ------0-----0--- |
G --0---0---2----- | --2-------0----- | --0---0---2----- | --2-------0----- |
D --------0------- | --------2------- | --------0------- | --------2------- |
A 3--------------- | 2--------------- | 3--------------- | 2--------------- |
E ---------------- | ---------------- | ---------------- | ---------------- |


  : . : . : . : .    : . : . : . : .    : . : . : . : .    : . : . : . : .
e ----0-------0--- | ------0-3-2-0--- | ----0-------0--- | ------0-2-3-0--- |
B --------------0- | ----0---------3- | --------------0- | ----0---------3- |
G --0---0---2----- | --0------------- | --0---0---2----- | --0------------- |
D --------0------- | 2--------------- | --------0------- | ---------------- |
A 3--------------- | ---------------- | 3--------------- | 2--------------- |
E ---------------- | ---------------- | ---------------- | ---------------- |


  : . : . : . : .    : . : . : . : .    : . : . : . : .    : . : . : . : .
e ----0-------0--- | 3---2-0---0----- | ----------3----- | ---------------- |
B --------------0- | --0---------3--- | 1---3-----3----- | ---------------- |
G --0---0---2----- | --------0-----0- | --0-----2-0----- | ---------------- |
D --------0------- | 2---0----------- | ------0--------- | ---------------- |
A 3--------------- | ------3-----2--- | 0--------------- | ---------------- |
E ---------------- | ---------------- | ----2-----3----- | ---------------- |
     
Добавлено: 28.09.2013
Другие материалы по этой песне:
  • Аккорды и текст

Страница создана 28.09.2013
http://primanota.ru/kenny-loggins/return-to-poohs-corner-chords.htm
Привет, Гость.
Предлагаем пройти революционный курс по гитаре.
Подарок от PrimaNota.Ru, забирай!