PrimaNota.ru - самый крупный в мире бесплатный архив песенных текстов, аккордов, табулатур и нот


Kenny Chesney - In A Small Town - аккорды и текст, таба, видео

Регистрация Запомнить меня
Войти через:  Facebook Google Twitter Vk Yandex Mail.ru

Kenny Chesney - In A Small Town - аккорды и текст, таба, видео

Печатать
Просмотров: 166
In A Small Town
Kenny Chesney
-------------------------------------------------------------------------------
                             In A small town_Kenny Chesney
-------------------------------------------------------------------------------
Tabbed by:dwarfcar21
Email:wally_kai_harper@yahoo.com
 
Tuning:standard

This is a great song but no tabs. I might as well throw in the chords and lyrics. All 
transcribed so plz watch the critisizm. I added the solo too. So you can play the whole song.
         G                          AM
e|-----3-----------------------------0--------------------------------------|
B|-----0-----------------------------1--------------------------------------|
G|-----0-----------------------------2--------------------------------------|
D|-----0-----------------------------2--------------------------------------|
A|-----2-----------------------------0--------------------------------------|
E|-----3-----------------------------0--------------------------------------|

Pre Chorus background guitar. Starting at...... "Jefferey prays too Jesus..."

e|--------------------------------------------------------------------------|
B|----3---------------------------------------------------------------------|
G|---0-0-0------------------------------------------------------------------|
D|------0--Listen to song for how many times he plays-it.-------------------|
A|--2-----------------------------------------------------------------------|
E|-3------------------------------------------------------------------------|

End Solo

e|---------------------------------------|-------|--------------------------|
B|---------------------------------------|-x-x---|--------------------------|
G|-----------------0--0--0---------------|-x-x---|---0--0--0----------------|
D|----5p4--2-0----5--5--5--5----5--------|-x-x---|--5--5-5--5--5------------|
A|----------------------------------10---|-x-x-x6|----------------10--------|
E|---------------------------------------|-------|--------------------------|

Outro

e|----------------------------|
B|----------------------------|
G|-----0-4-2-0----------------|
D|-5-5------------------------|
A|----------------------------|
E|----------------------------|x6


Chords+Lyrics

I been lost in this town
Am
even though I know my way around
Am
Didn't take me long until I found the devil
G
Just one word I knew his voice
G
It's the one I heard in every choice I made
Am
Just trying to be a rebel

Am
In a small town
Am
In a small town

G
If you jumped off our front porch
G
You land right were the civil war was fought
                 Am
It's never been forgotten
G
There's 20 miles to the interstate
Am
There's a Burger King and a Hotel 8
Am
And the only thing between here and there is cotton

C
Jeffery prays to Jesus asking him please
          G
Just help us through one more day
C
Jenny gets high she wastes her life
C
Me I just ran away

Am
From a small town
Am
From a small town

G
Sometimes it was hell and sometimes heaven
Am
Kinda like church kinda like jail
Am
There's a water tower that says Welcome to Nowhere
G
As soon as I could I was long gone
Am
My jeans were torn and my hair was long
Am
Now I can't believe I want to Go back there

Am
To a small town
Am
To a small town

C
Jeffery prays to Jesus asking him please
          G
Just help us through one more day
C
Jenny gets high she wastes her life
C
Me I just ran away

Am
From a small town
Am
From a small town
Am
To a samll town
Am
To a small town
Am
Oh to a small town
Am
To a small town

whoo whooooo.......

Ohhhh to a samll town

| /  slide up
|   slide down
| h  hammer-on
| p  pull-off
| ~  vibrato
| +  harmonic
| x  Mute note
===============================================================================
Добавлено: 25.04.2014
Другие материалы по этой песне:
  • Аккорды и текст

Страница создана 08.03.2012
http://primanota.ru/kenny-chesney/in-a-small-town-chords.htm
Привет, Гость.
Предлагаем пройти революционный курс по гитаре.
Подарок от PrimaNota.Ru, забирай!