PrimaNota.ru - самый крупный в мире бесплатный архив песенных текстов, аккордов, табулатур и нот


Kenny Burrell - Midnight Blue - таба, видео

Регистрация Запомнить меня
Войти через:  Facebook Google Twitter Vk Yandex Mail.ru

Kenny Burrell - Midnight Blue - таба, видео

Печатать
Просмотров: 182
Авторы музыки: Kenny Burrell

----------------------------------------------------------------------------
                             Midnight Blue - Kenny Burrell 
----------------------------------------------------------------------------
Tabbed by: austin davies
Email: otty_man@hotmail.com

Tuning:standard

tempo:66bpm

Play very staccato up until the BRIDGE
Intro Chords/verse:
e|--1---3---4---3-------1---3---4---3----------|
B|--1---3---4---3-------1---3---4---3----------|
G|--1---3---5---3-------1---3---5---3----------|
D|--3---5---6---5-------3---5---6---5----------|
A|--3---5---6---5-------3---5---6---5----------|
E|-1----3---4---3------1----3---4---3----------|

   1&   

Intro Riff:
e|----------------------------------------------------------|
B|-------------------------4-----------4-6---------------4--|
G|-------1---4p3p1---1-----3-----1-3/5-----4p3p1---1-----3--|    x2
D|--2-3----3-------3---3---2---3-----------------3---3---2--|
A|-------------------------3-----------------------------3--|
E|----------------------------------------------------------|

Let ALL notes have a chance to ring a bit, but don't make it too slow!
e|----------------------------------------------------------|
B|------4--2-4-2--1-2-1-------------------------------------|
G|----1-------------------------------5--3-5-3--1-3-1-------|
D|--3--------------------3--6\0------3----------------------|
A|----------------------------------3-----------------------|
E|----------------------------------------------------------|

Little blues lick straight after bridge.
e|-----------------------------|
B|--------------------4--------|
G|--------------------3--------|
D|--3--1-----1--3-3---2-ring---|
A|--------3-----------3--------|
E|-----------------------------|

solo is in F
\im pretty sure its improvised...well most of it

************************************

| /   slide up
| \   slide down
| h   hammer-on
| p   pull-off
| ~   vibrato
| +   harmonic
| x   Mute note
| b   Bend
| pb  Pre-bend
| br  Bend release
| pbr Pre-bend release
| brb Bend release bend

************************************
Добавлено: 31.07.2012
Другие материалы по этой песне:

Страница создана 09.03.2012
http://primanota.ru/kenny-burrell/midnight-blue-chords.htm
Привет, Гость.
Предлагаем пройти революционный курс по гитаре.
Подарок от PrimaNota.Ru, забирай!