PrimaNota.ru - самый крупный в мире бесплатный архив песенных текстов, аккордов, табулатур и нот


Kenny Burrell - Kennys Sound - таба, видео

Регистрация Запомнить меня
Войти через:  Facebook Google Twitter Vk Yandex Mail.ru

Kenny Burrell - Kennys Sound - таба, видео

Печатать
Просмотров: 94
Kennys Sound - Kenny Burrell


Tabbed by: axe victim

Email: Leave a message on my  'Ultimate Guitar'  profile or comment 
here and I'll get back to you.

Tuning: EADGBe

| /  slide up
| \  slide down
| h  hammer-on
| p  pull-off
| ~  vibrato or sustain
| +  harmonic


From the wonderful album  Midnight Blue  by Kenny Burrell



___________________________________________________________________

e|--------------------------------|--------------------------------|
B|-------------------3-----2------|-------------------3-----2------|
G|-------3-------------2-----1----|---------3-----------2-----1----|
D|-5-----------3------------------|-5-----------3------------------|
A|--------------------------------|--------------------------------|
E|-------------1------------------|-------------1------------------|

 | 1 - & - 2 - & - 3 - & - 4 - & -| 1 - & - 2 - & - 3 - & - 4 - & -|


___________________________________________________________________

e|--------------------------------|-----------------------------9--|
B|--------------------------------|-----------------------9--------|
G|-------3-------3-6-3-4-6-4-3----|-----------------8--------------|
D|-5------------------------------|-----------8--------------------|
A|--------------------------------|-----8--------------------------|
E|--------------------------------|--------------------------------|


____F7sus4_____________________Bb6_________________________________

e|--------------------------------|---------------------6----------|
B|-11----------11--11--11------8--|-----8-----------8---8---8------|
G|-8-----------8---8---8-------7--|-----7-----------7-------7------|
D|-10----------10--10--10------6--|-----6--------------------------|
A|-8-----------8---8---8----------|--------------------------------|
E|-----------------------------6--|-----6--------------------------|


___Ebmaj9______Eb__________________________________________________

e|--------------------------------|--------------------------------|
B|-6------------------------------|--------------------------------|
G|-7-----------8------------------|--------------------------------|
D|-8-----------8------------------|--------------------------------|
A|-6-----------6------------------|--------------------------------|
E|--------------------------------|--------------------------------|


___Eb7sus4_____________________Ab6_________________________________

e|--------------------------------|---------------------4----------|
B|-9-----------9---9---9-------6--|-----6-----------6-------6------|
G|-6-----------6---6---6-------5--|-----5-----------5-------5------|
D|-8-----------8---8---8-------4--|-----4--------------------------|
A|-6-----------6---6---6----------|--------------------------------|
E|-----------------------------4--|-----4--------------------------|



___Dbmaj9______Db___________________________________Gb_______________F_

e|--------------------------------|--------------------------------|---|
B|-4------------------------------|-----------------2--h4--p2------|-1-|
G|-5-----------6------------------|-----------------3--------------|-2-|
D|-6-----------6------------------|-----------------4--------------|-3-|
A|-4-----------4------------------|--------------------------------|---|
E|--------------------------------|-----------------2--------------|-1-|



Repeat. I will tab the end later. 
Добавлено: 02.06.2016
Другие материалы по этой песне:
  • Аккорды и текст

Страница создана 02.06.2016
http://primanota.ru/kenny-burrell/kennys-sound-chords.htm
Привет, Гость.
Предлагаем пройти революционный курс по гитаре.
Подарок от PrimaNota.Ru, забирай!