PrimaNota.ru - самый крупный в мире бесплатный архив песенных текстов, аккордов, табулатур и нот


Kenny Burrell - Chitlins Con Carne - таба, видео

Регистрация Запомнить меня
Войти через:  Facebook Google Twitter Vk Yandex Mail.ru

Kenny Burrell - Chitlins Con Carne - таба, видео

Печатать
Просмотров: 112
Авторы музыки: Kenny Burrell

Chitlins Con Carne - Kenny Burrell


Tabbed by: axe victim

Email: Leave a message on my  'Ultimate Guitar'  profile or comment 
here and I'll get back to you.

Tuning: EADGBe

| /  slide up
| \  slide down
| ~  vibrato or sustain
| s  slur - rapid slide, sounds like one note
| ^  slight bend ( or quarter-tone bend )


From the essential Midnight Blue album by Kenny Burrell. 



___________________________________________________________________

e|--------------------------------|--------------------------------|
B|--------------------------------|--------------------------------|
G|--------------------------------|--------------------------------|
D|--------------------------------|--------------------------------|
A|--------------------------------|-----------------6-------8------|
E|--------------------------------|---------8---8-------8-------8--|



___C7#9____________________________________________________________

e|--------------------------------|--------------------------------|
B|--------------------------------|--------------------------------|
G|-------------------------8---8--|--------------------------------|
D|-------------------------8---8--|--------------------------------|
A|-8/10--------6-----------7---7--|-----------------6-------8------|
E|---------8---------------8---8--|---------8---8-------8-------8--|

 | 1 - & - 2 - & - 3 - & - 4 - & -| 1 - & - 2 - & - 3 - & - 4 - & -|



___C7#9____________________________________________________________

e|--------------------------------|--------------------------------|
B|--------------------------------|--------------------------------|
G|---------8---8-----------8---8--|--------------------------------|
D|---------8---8-----------8---8--|--------------------------------|
A|---------7---7-----------7---7--|-----------------6-------8------|
E|---------8---8-----------8---8--|---------8---8-------8-------8--|




___F7______________________________________________________________

e|--------------------------------|--------------------------------|
B|--------------------------------|--------------------------------|
G|-------------------------8---8--|--------------------------------|
D|-------------------------7---7--|--------------------------------|
A|-8/10--------6-----------8---8--|-----------------6-------8------|
E|---------8----------------------|---------8---8-------8-------8--|



___C7#9____________________________________________________________

e|--------------------------------|--------------------------------|
B|--------------------------------|--------------------------------|
G|---------8---8-----------8---8--|--------------------------------|
D|---------8---8-----------8---8--|--------------------------------|
A|---------7---7-----------7---7--|-----------------6-------8------|
E|---------8---8-----------8---8--|---------8---8-------8-------8--|


___G7_______________________________F7_____________________________
   
e|--------------------------------|--------------------------------|
B|--------------------------------|--------------------------------|
G|--------------------------------|--------------------------------|
D|-----8~~~~~~--------------------|--------------------------------|
A|-8/10-------------------8/9--8~~~~----------------6-------8------|
E|--------------------------------|-------------8-------8-------8--|


Solo begins...

___C7#9____________________________________________________________

e|--------------------------------|-----------------8-------8---8--|
B|--------------------------------|-------------8-11------11-------|
G|---------8---8-----------8---8--|--------------------------------|
D|---------8---8-----------8---8--|--------------------------------|
A|---------7---7-----------7---7--|--------------------------------|
E|---------8---8-----------8---8--|--------------------------------|


___C7#9____________________________________________________________

e|--------------------------------|-----11--8----------------------|
B|--------------------------------|-----------11-8-----------------|
G|---------8-------8---8-------8--|----------------10-8------------|
D|---------8-------8---8-------8--|---------------------10--8---10\-
A|---------7-------7---7-------7--|--------------------------------|
E|---------8-------8---8-------8--|--------------------------------|

 | 1 - & - 2 - & - 3 - & - 4 - & -| 1 - & - 2 - & - 3 - & - 4 - & -|



___C7#9____________________________________________________________

e|--------------------------------|-----------8--------------------|
B|--------------------------------|---------11------11-8-----------|
G|---------8-------8---8-------8--|-------------------------11-10-8-
D|---------8-------8---8-------8--|--------------------------------|
A|---------7-------7---7-------7--|--------------------------------|
E|---------8-------8---8-------8--|--------------------------------|


___F7______________________________________________________________

e|--------------------------------|--------------------------------|
B|--------------------------------|-------------11-----------------|
G|---------8-------8---8-------8--|--------10/12--11s10p8---8------|
D|-10------7-------7---7-------7--|----------------------10--------|
A|---------8-------8---8-------8--|--------------------------------|
E|--------------------------------|--------------------------------|


___C7#9____________________________________________________________

e|--------------------------------|-------------------------7s8-8--|
B|--------------------------------|--------------------------------|
G|---------8-------8---8-------8--|---------------10/12-12---------|
D|-10------8-------8---8-------8--|--------8/10-10-----------------|
A|---------7-------7---7-------7--|--------------------------------|
E|---------8-------8---8-------8--|--------------------------------|


___G7_______________________________F7_____________________________

e|--------------------------------|--------------------------------|
B|--------------------------------|--------------------------------|
G|10s11-10---------10----------8--|------11s10-8-------------------|
D|-----------------9-----------7--|--------------10-8---8---10--10-|
A|-----------------10----------8--|-------------------10-----------|
E|--------------------------------|--------------------------------|


___C7#9____________________________________________________________
01:17
e|--------------------------------|--------------8--11^-----11^----|
B|--------------------------------|---------8--11------------------|
G|---------8-------8---8-------8--|--------------------------------|
D|---------8-------8---8-------8--|--------------------------------|
A|---------7-------7---7-------7--|--------------------------------|
E|---------8-------8---8-------8--|--------------------------------|


___C7#9____________________________________________________________

e|-8------------------------------|----14-13s11-8------------------|
B|--------------------------------|-----------------11-8-----------|
G|---------8-------8---8-------8--|----------------------10-8------|
D|---------8-------8---8-------8--|---------------------------10-8-|
A|---------7-------7---7-------7--|--------------------------------|
E|---------8-------8---8-------8--|--------------------------------|


___C7#9____________________________________________________________

e|--------------------------------|--------------8--11------8------|
B|--------------------------------|---------8-11--------------11-8-|
G|---------8-------8---8-------8--|--------------------------------|
D|-10------8-------8---8-------8--|--------------------------------|
A|---------7-------7---7-------7--|--------------------------------|
E|---------8-------8---8-------8--|--------------------------------|


___F7______________________________________________________________

e|--------------------------------|--------------------------------|
B|--------------------------------|-------------11-11h13-11--------|
G|-10-8----8-------8---8-------8--|--------10/12-----------12s10-8-|
D|---------7-------7---7-------7--|--------------------------------|
A|---------8-------8---8-------8--|--------------------------------|
E|--------------------------------|--------------------------------|

___C7#9____________________________________________________________

e|--------------------------------|--------------------------------|
B|--------------------------------|-------------------------8--8---|
G|---------8-------8---8-------8--|-----------------10-10----------|
D|-10------8-------8---8-------8--|---------10-10------------------|
A|---------7-------7---7-------7--|--------------------------------|
E|---------8-------8---8-------8--|--------------------------------|


___G7_______________________________F7_____________________________
01:35
e|--------------------------------|--------------------------------|
B|-11-8--------------------13p11--|--------------------------------|
G|-------------10-----------------|-12s10-------8-------11-10-8----|
D|-------------9------------------|-------------7---------------8--|
A|-------------10-----------------|-------------8------------------|
E|--------------------------------|--------------------------------|


___C7#9____________________________________________________________

e|--------------------------------|--------------------------------|
B|--------------------------------|--------------------------------|
G|-------------8-----------8---8--|--------------------------------|
D|-10-10-------8-----------8---8--|--------------------------------|
A|-------------7-----------7---7--|--------------------------------|
E|-------------8-----------8---8--|--------------------------------|




To be continued...


Добавлено: 02.06.2016
Другие материалы по этой песне:

Страница создана 25.02.2012
http://primanota.ru/kenny-burrell/chitlins-con-carne-chords.htm
Привет, Гость.
Предлагаем пройти революционный курс по гитаре.
Подарок от PrimaNota.Ru, забирай!