PrimaNota.ru - самый крупный в мире бесплатный архив песенных текстов, аккордов, табулатур и нот


Kenny Burrell - Blue Bossa - таба, видео

Регистрация Запомнить меня
Войти через:  Facebook Google Twitter Vk Yandex Mail.ru

Kenny Burrell - Blue Bossa - таба, видео

Печатать
Просмотров: 486
Blue Bossa by Kenny Burrell


Tabbed by: axe victim

Leave a message on my  'Ultimate Guitar'  profile or comment
here and I'll get back to you.

Tuning: EADGBe



Intro: ( swing feel... )


___Fm________________Gm_________________Ab_____________Gm__________________

e|------------------------------------|------------------------------------|
B|-------1-----------3----------------|-4--------------3-------------------|
G|-------1-----------3----------------|-5--------------3-------------------|
D|-------3-----------5----------------|-6--------------5-------------------|
A|------------------------------------|------------------------------------|
E|-1--------1--------3--------3-------|-4--------4--------3--------3-------|


You could use min7 and maj7 chords there. Bass notes are optional:

Fm7 (1x111x)
Gm7 (3x333x)
Abmaj7 (4x554x)



Part A:


___Fm__________________________________________________C7#9________________
            ( / = slide up )
e|------------------------------------|------------------------------------|
B|------------------------------------|------------------------------------|
G|------------------------------------|----------------8-------------------|
D|-------6--------8-h9-p8-p6----------|----------------8-----------------6-|
A|/8--------8-----------------8-----6-|-8--------------7--------6--8-------|
E|------------------------------------|----------------8-------------------|



___Fm__________________________________________________C7#9________________
         ( h = hammer-on, p = pull-off )
e|------------------------------------|------------------------------------|
B|------------------------------------|------------------------------------|
G|----------8-----10------------------|----------------8-------------------|
D|-8/10-------------8h9p8-p6----------|----------------8-------------------|
A|----------------------------8-----6-|-8--------------7-------------------|
E|------------------------------------|----------------8-------------------|



___Fm__________________________________________________C7#9________________

e|------------------------------------|------------------------------------|
B|------------------------------------|------------------------------------|
G|------------------------------------|----------------8-------------------|
D|-------6--------8-h9-p8-p6----------|----------------8-----------------6-|
A|/8--------8-----------------8-----6-|-8--------------7--------6--8-------|
E|------------------------------------|----------------8-------------------|




___Fm__________________________________________________C7#9________________

e|------------------------------------|-------------------------------------~~|
B|------------------------------------|-------------------------------------~~|
G|----------8-----10------------------|----------------8------------------10~~|
D|-8/10-------------8h9p8-p6----------|----------------8-----------10-------~~|
A|----------------------------8-----6-|-8--------------7--------------------~~|
E|------------------------------------|----------------8--------------------~~|




Part B:


___Gm7b5____________________________C7b9________________________________Fm7_

e|-11----------------------9--11----9-|-------------------------8--9-----8~--~~|
B|-11-------------------------------9-|----------------------------------9~--~~|
G|-10-------------------------------9-|----------------------------------8~--~~|
D|-11-------------------------------8-|----------------------------------10--~~|
A|-10---------------------------------|----------------------------------8~--~~|
E|----------------------------------8-|--------------------------------------~~|



____________________________________Bb7_________________________________Bm9_

e|(8)---------------------------------|----------------------------------8~--~~|
B|(9)-------------------------------9-|----------------------------6-----6~--~~|
G|(8)----------------------10-------7-|-------------------------5--------6~--~~|
D|(10)------------------------------6-|----------------------------------6~--~~|
A|(8)-------------------------------8-|--------------------------------------~~|
E|----------------------------------6-|----------------------------------6~--~~|



____________________________________Db13____________________________C7#9b13_

e|(8)----------------6--8-----------6-|-------------------4--6-----------4~--~~|
B|(6)-------------------------------4-|----------------------------------4~--~~|
G|(6)-------------------------------4-|----------------------------------3~--~~|
D|(6)---------------------------------|----------------------------------2~--~~|
A|----------------------------------4-|--------------------------------------~~|
E|(6)---------------------------------|--------------------------------------~~|



_______________________________________________________C7#9________________

e|(4)---------------------------------|------------------------------------|
B|(4)------/6-----4--------4--6-----6-|----------------4-------------------|
G|(3)----------------3----------------|----------------3-------------------|
D|(2)---------------------------------|----------2-------------------------|
A|------------------------------------|-------3----------------------------|
E|------------------------------------|------------------------------------|


Repeat parts.


I might get 'round to tabbing the solo later.
Добавлено: 17.07.2013
Вам также может быть интересно:
Другие материалы по этой песне:
  • Аккорды и текст

Страница создана 17.07.2013
http://primanota.ru/kenny-burrell/blue-bossa-chords.htm
Привет, Гость.
Предлагаем пройти революционный курс по гитаре.
Подарок от PrimaNota.Ru, забирай!