PrimaNota.ru - самый крупный в мире бесплатный архив песенных текстов, аккордов, табулатур и нот


Kenny Brown - You Dont Know My Mind - таба, видео

Регистрация Запомнить меня
Войти через:  Facebook Google Twitter Vk Yandex Mail.ru

Kenny Brown - You Dont Know My Mind - таба, видео

Печатать
Просмотров: 247
Уроки эстрадного вокала в Санкт-Петербурге
Kenny Brown on Fat Possum Records: http://www.fatpossum.com/products/stingray
He now records for Devil Down Records

You Dont Know My Mind
From the album Stingray (2003).
Also called Wretched Mind in the album Goin Back to Mississippi (1996).
Kenny Brown (metonymo tab)

b=bend, p=pull-off, bp=bend and pull-off


Pattern:        G-riff x2, C-riff x2
                G-riff, D-riff, C-riff, G-riff


G-riff (when followed by either the G-riff or C-riff)
  G              (G7     Gadd#9)                   G7
|-----3---3-------1p0------------------3---3-------1-------1---------|
|-----0---0------(0)---------0---------0---0-------0-------0---------|
|-----0---0---------------3b--(3p)-----0---0-------0-------0---------|
|-----0---0----------------------------0---0---------------0---------|
|----------------(2)-------------------------------2-----------------|
|-3--------------------------------3---------------------------------|
  |       .       .       .        |       .       .       .

C-riff
  C              (C7)
|----0---0--------------------0-----|
|----1---1--------------------1-----|
|----0---0--------3b--(p)-----0-----|
|----2---2--------------------2-----|
|-3-----------------------3---------|
|-----------------------------------|
  |       .       .       .

G-riff (when followed by D-riff)
  G              (G7     Gadd#9)                   G7
|-----3---3-------1p0------------------3---3-------1-----------------|
|-----0---0------(0)---------0---------0---0-------0-----------------|
|-----0---0---------------3b--(3p)-----0---0-------0-----------------|
|-----0---0----------------------------0---0-------------------------|
|----------------(2)---------------------------------------2p0-------|
|-3--------------------------------3---------------3-----------------|
  |       .       .       .        |       .       .       .

D-riff
  D            (Dsus4 D)
|---------2-------3---2---2--2------|
|---------3-------3---3---3--3------|
|---------2-------2---2---2--2------|
|-0-----------------------0---------|
|-----------------------------------|
|-----------------------------------|
  |       .       .       .


Ending
D-riff + C-riff, plus:

  G
|----3-1p-------------------3---------|
|----------3p-------------------------|
|--------------3b-p-------------------|
|-----------------------2p------------|
|-------------------------------------|
|-3------------------3------3---------|


G                                                  G7
Well I.m going to the racetrack, gonna see my pony run, yeah,
G                                                  G7
If I win some money, baby, you know I.ll bring you some, say,
             C         C7          C         C7      G         G7
        Now, you don.t know a lot, you don.t know my mind,
                  D
        Yeah, you see me laughing, Lord,
            C                C7        G           G7
        I.m laughing just to keep from crying.

Yeah, I hit my baby one time, lot of black under eye, yeah,
I would have cut her trout, but I scared she die, Lord,
        Now, you don.t know a lot, you don.t know my mind,
        Yeah, you see me laughing, Lord,
        I.m laughing just to keep from crying.

Yeah, gonna jerk my a pilen from my yards back bins,
Gonna whip my little baby, gonna teach her some sins, say,
        Now, you don.t know a lot, you don.t know my mind,
        Yeah, you see me laughing, Lord,
        I.m laughing just to keep from crying.

Watching me with a forge, guess so It wont run,
What you want with a woman, call or she will come, say,
        Now, you don.t know a lot, you don.t know my mind,
        Yeah, you see me laughing, Lord,
        I.m laughing just to keep from crying.

               Instr.

Yeah, I cut your trout, drinking blood like wine, Lord,
I ain.t afraid of living, yeah I ain.t afraid of dyin., say,
        Now, you don.t know a lot, you don.t know my mind,
        Yeah, you see me laughing, Lord,
        I.m laughing just to keep from crying.

Yeah, it takes rocks and grabble build a solid road,
Takes a good looking woman satisfy my soul, say,
        Now, you don.t know a lot, you don.t know my mind,
        Yeah, you see me laughing, Lord,
        I.m laughing just to keep from crying.

Yeah, now you don.t know a lot, a you don.t know, well,
A you don.t know my wretched mind, babe,
        You don.t know a lot, you don.t know my mind,
        Yeah, you see me laughing, Lord,
        I.m laughing just to keep from crying.

Yeah, now you don.t know a lot, a you don.t know, well,
A you don.t know my wretched mind, babe,
        You don.t know a lot, you don.t know my mind,
        Yeah, you see me laughing, Lord,
        I.m laughing just to keep from crying.

        Yeah, you see me laughing, Lord,
        I.m laughing just to keep from crying.

********
metonymo tab (metonymo @ mail . ru)
Добавлено: 03.03.2012
Другие материалы по этой песне:
  • Аккорды и текст

Страница создана 03.03.2012
http://primanota.ru/kenny-brown/you-dont-know-my-mind-chords.htm
Привет, Гость.
Предлагаем пройти революционный курс по гитаре.
Подарок от PrimaNota.Ru, забирай!