PrimaNota.ru - самый крупный в мире бесплатный архив песенных текстов, аккордов, табулатур и нот


Kenneth Aaron Harris - Home Sweet Home - аккорды и текст, видео

Регистрация Запомнить меня
Войти через:  Facebook Google Twitter Vk Yandex Mail.ru

Kenneth Aaron Harris - Home Sweet Home - аккорды и текст, видео

Печатать
Просмотров: 57
Home Sweet Home
Kenneth Aaron Harris
"Home Sweet Home"
by Kenneth Aaron Harris
'Brooklyn'

Capo on 4th
***For simplicity, all F chords are actually F7M  ***

C
        F         Am       G
An open road in a southern wind
F                                  G
Took me off my course from where I never should've been
      C         F           Am        G
And I missed my folks and I missed my friends
F                                G                     G7
But I think it's you that I will miss most in the end

  C       E7      Am    F      C  G
A cold midwestern storm starts to blow
  C          E7    Am        F    C  G
A voice down in my soul said time to go

 Dm                            Am
Across the jagged mountains to sea that shaped their stones
     G                                   F
To a sleepy southern town that seemed to hide out on the coast
             C     F    C     G     C
That we call home, home sweet home

                F           Am             G
With a boastful heart and a lack of common sense
F                                   G
Don't know how I found something so many others missed
     C      F             Am          G
Such simple times till we complicated them
    F                               G                         G7
But we won't lie awake at night and think what might've been

  C      E7       Am         F    C  G
A fading southern ghost said time to go
    C       E7     Am       F    C  G
The flooded summer streets, time to leave

      Dm                      Am
So we fell into the ocean and drifted up the coast
G                                  F
Washed up in a town they say would swallow us up whole
             C     F    C     G
That we call home, home sweet home

    Am                      F
And new starts, cold hearts we got in return
C                                 E7
Seems a shame the hard way is the one way that I learn
     Am                    F
This cutthroat business is none of my concern
C                            G                  G7
I could sit back quietly and watch this city... burn

      C            E7       Am              F    C  G
Cause this town it feeds on dreams and it's time to leave
    C                     E7      Am         F     C    G
The bright lights and the tourist traps said don't come back

         Dm                         Am
So we're following our headlights into the great unknown
G                                   F
Looking for something that we could not find on our own
             C     F    C     G
That we call home, home sweet home
             C     F    C     G      C
That we call home, home sweet home


Picking Pattern (Notes relative to Capo):
  INTRO:
    C
e]--------0-------0-------0-------0---
B]----1-------1-------1-------1-------
G]------0-------0-------0-------0-----
D]------------------------------------
A]--3-------3-------3-------3---------
E]------------------------------------

  VERSE x2:
    C       F7M     Am      G               F7M             G
e]--------0-------0-------0-------3-------3-------0-------0-------3-------3---
B]----1-------1-------1-------0-------0-------1-------1-------0-------0-------
G]--------------2-------2-------0-------0-------2-------2-------0-------0-----
D]----------3-------2-----------------------3-------3-------------------------
A]--3---2---------------------------------------------------------------------
E]--------------------------3-------3-----------------------3-------3---------

  LEAD-IN TO CHORUS:
    G7      G6
e]--------1-------0---
B]----0-------0-------
G]------0-------0-----
D]--------------------
A]--------------------
E]--3-------3---------

  CHORUS:                 F7M  
    C       E7      Am      V C G
e]--------0-------0-------0-0-0-------3-------3-------3-------3---
B]----1-------0-------1-----1-1---0-------0-------0-------0-------
G]------0-------1-------2-----------0-------0-------0-------0-----
D]--------------------------3-------------------------------------
A]--3-------2-------0---------3-----------------------------------
E]------------------------------3-------3-------3-------3---------
    Dm              Am              G               F7M  
e]--------1-------1-------0-------0-------3-------3-------0-------0---
B]----3-------3-------1-------1-------0-------0-------1-------1-------
G]------2-------2-------2-------2-------0-------0-------2-------2-----
D]--0-------0---------------------------------------3-------3---------
A]------------------0-------0-----------------------------------------
E]----------------------------------3-------3-------------------------
                          F7M  
    C                       V C G
e]--------0-------0-------0-0-0-------3------3-------3-------3---
B]----1-------1-------1-----1-1---0------0-------0-------0-------
G]------0-------0-------0-----------0------0-------0-------0-----
D]--------------------------3------------------------------------
A]--3-------3-------3---------3----------------------------------
E]------------------------------3------3-------3-------3---------

  BRIDGE:
    Am              F7M             C               E7
e]--------0-------0-------0-------0-------0-------0------0------0---
B]----1-------1-------1-------1-------1-------1------0------0-------
G]------2-------2-------2-------2-------0-------0------1------1-----
D]------------------3-------3---------------------------------------
A]--0-------0-----------------------3-------3-------2-----2---------
E]------------------------------------------------------------------
    Am              F7M             C               G
e]--------0-------0-------0-------0-------0-------0------3------3-------1-------0---
B]----1-------1-------1-------1-------1-------1------0------0-------0-------0-------
G]------2-------2-------2-------2-------0-------0------0------0-------0-------0-----
D]------------------3-------3-------------------------------------------------------
A]--0-------0-----------------------3-------3---------------------------------------
E]--------------------------------------------------3------3------3-------3---------
Добавлено: 22.06.2016
Вам также может быть интересно:
Другие материалы по этой песне:
  • Аккорды и текст

Страница создана 22.06.2016
http://primanota.ru/kenneth-aaron-harris/home-sweet-home-chords.htm
Привет, Гость.
Предлагаем пройти революционный курс по гитаре.
Подарок от PrimaNota.Ru, забирай!